Oops, an error
Loading. Please wait.

Beat On The Brat Tab

version 4
version 4

Whole song

Interactive

1,287 views 3 this week
1 commentread comment
1 2 3 4 5
please rate
add to favorites
launch autoscroll
font size
0
reset
how to read this tab
guitar tuner
Tab Pro tools
  • play this tab
  • loop segment
  • change instrument
  • show fretboard
  • metronome
×
Best way to learn
"Beat On The Brat"
Autoscroll
slow
fast
+/-
esc
set tempo
stop
Contributor
Artist:The Ramones
Song:Beat On The Brat
Tabbed by:Ron4ik16


This song is based on Power Chords,there are 5 chords in this song,of which,all use the 
finger formation.this song originally has no solo!
I have also put the lyrics of this song right in the end of the tab!
So Learn it,Play it,Enjoy it! \m/ :) \m/

Note:I learned this song by my ears!
And also,just if anyone wants to send me a message,my new email is: ronnie@inbox.lv(had 
make a new one,because my computer doesn't let me into my old one.)

Chords used in this song:


    Bb6; E;  F#; A7;F#-3
e|---------------------|
B|---------------------|
G|-------9---11--------|
D|---9---9---11--7---4-|
A|---9---7---9---7---4-|
E|---7-----------5---2-|

Intro:
e|---------------|                         |--------------|
B|---------------|                         |--------------|
G|-------------9-|                         |-----9------9-|
D|-9-9-9-9-9-9-9-|2x,and right after that: |-9-9-9--9-9-7-|
A|-9-9-9-9-9-9-7-|                         |-9-9-7--7-7-7-|
E|-7-7-7-7-7-7---|                         |-7-7----7-7---|

After this part,the verse starts.


Verse:


e|---------|     |-------------------------------------|
B|---------|     |-------------------------------------|
G|---------|     |-9-9-9-9-9-9-9--11-11-11-11-11-11-11-|
A|-9-9-9-9-|12x; |-9-9-9-9-9-9-9--11-11-11-11-11-11-11-|play all this part 2x
D|-9-9-9-9-|     |-7-7-7-7-7-7-7--9--9--9--9--9--9--9--|
E|-7-7-7-7-|     |-------------------------------------|

Then play this:

e|---------|    |-------------------------------------|
B|---------|    |-------------------------------------|
G|---------|    |-9-9-9-9-9-9-9--11-11-11-11-11-11-11-|
A|-9-9-9-9-|4x; |-9-9-9-9-9-9-9--11-11-11-11-11-11-11-|
D|-9-9-9-9-|    |-7-7-7-7-7-7-7--9--9--9--9--9--9--9--|
E|-7-7-7-7-|    |-------------------------------------|

and again:
|---------|
|---------|
|---------|
|-9-9-9-9-|4x
|-9-9-9-9-|
|-7-7-7-7-|

right after the verse,the bridge 1 is played.

Bridge 1:
e|-----------------|-----------------|
B|-----------------|-----------------|
G|-----------------|-----------------|
D|-7-7-7-7-7-7-7-7-|-4-4-4-4-4-4-4-4-|2x
A|-7-7-7-7-7-7-7-7-|-4-4-4-4-4-4-4-4-|
E|-5-5-5-5-5-5-5-5-|-2-2-2-2-2-2-2-2-|

and after the bridge goes the chorus:

Chorus:
e|---------------------------------------------|
B|---------------------------------------------|
G|------------9-9-9-9-9-------------9-9-9-9-9--|
D|-9-9-9-9-9--9-9-9-9-9--9-9-9-9-9--9-9-9-9-9--|
A|-9-9-9-9-9--7-7-7-7-7--9-9-9-9-9--7-7-7-7-7--|
E|-7-7-7-7-7-------------7-7-7-7-7-------------|

|---------------------------------|
|---------------------------------|
|---------------------------------|
|-9-9-9-9-9-9-9-9-9-9-9-9-9-9-9-9-|then:
|-9-9-9-9-9-9-9-9-9-9-9-9-9-9-9-9-|
|-7-7-7-7-7-7-7-7-7-7-7-7-7-7-7-7-|

|-----------------|-----------------|
|-----------------|-----------------|
|-----------------|-----------------|
|-7-7-7-7-7-7-7-7-|-4-4-4-4-4-4-4-4-|and after this again:
|-7-7-7-7-7-7-7-7-|-4-4-4-4-4-4-4-4-|
|-5-5-5-5-5-5-5-5-|-2-2-2-2-2-2-2-2-|

|---------------------------------------------|
|------------9-9-9-9-9-------------9-9-9-9-9--|
|-9-9-9-9-9--9-9-9-9-9--9-9-9-9-9--9-9-9-9-9--|and
|-9-9-9-9-9--7-7-7-7-7--9-9-9-9-9--7-7-7-7-7--|
|-7-7-7-7-7-------------7-7-7-7-7-------------|

|---------------------------------|
|---------------------------------|
|---------------------------------|
|-9-9-9-9-9-9-9-9-9-9-9-9-9-9-9-9-|
|-9-9-9-9-9-9-9-9-9-9-9-9-9-9-9-9-|
|-7-7-7-7-7-7-7-7-7-7-7-7-7-7-7-7-|

and then
|-----------------|-----------------|
|-----------------|-----------------|
|-----------------|-----------------|
|-7-7-7-7-7-7-7-7-|-4-4-4-4-4-4-4-4-|2x
|-7-7-7-7-7-7-7-7-|-4-4-4-4-4-4-4-4-|
|-5-5-5-5-5-5-5-5-|-2-2-2-2-2-2-2-2-|

After this goes the bridge 2.

Bridge 2:

e|---------------|                  |-----------------------------|
B|---------------|                  |-----------------------------|
G|-------------9-|                  |-----9------9------9-------9-|
D|-9-9-9-9-9-9-9-|2x,and after that |-9-9-9--9-9-7--9-9-9---9-9-7-|
A|-9-9-9-9-9-9-7-|                  |-9-9-7--9-9-7--9-9-7---9-9-7-|
E|-7-7-7-7-7-7---|                  |-7-7----7-7----7-7-----7-7---|

then the verse,bridge 1,and chorus are played again,and then goes the outro.

Outro:

e|---------------|         |----------------------|
B|---------------|         |----------------------|
G|-------------9-|         |-----9------9-------9-|
D|-9-9-9-9-9-9-9-|2x;then  |-9-9-7--9-9-9---9-9-7-|
A|-9-9-9-9-9-9-7-|         |-9-9-7--9-9-7---9-9-7-|
E|-7-7-7-7-7-7---|         |-7-7----7-7-----7-7---|

Structure of the song:

Intro;
Verse;
Bridge;
Chorus;
Bridge 2;
Verse
Bridge;
Chorus;
Outro


Lyrics of the song:

Verse 1:
Beat on the brat,
Beat on the brat,
Beat on the brat,
With a baseball bat!
Oh yeah,oh yeah,o-oh...

Beat on the brat,
Beat on the brat,
Beat on the brat,
With a baseball bat!
Oh yeah,oh yeah,o-oh...

Oh yeah,oh yeah,o-oh...

Chorus:
What can you do?
What can you do?
With a brat like that,
Always on you back,
What can you lose...?

What can you do?
What can you do?
With a brat like that,
Always on you back,
What can you lose...?

lose...


Verse 2:
Beat on the brat,
Beat on the brat,
Beat on the brat,
With a baseball bat!
Oh yeah,oh yeah,o-oh...

Beat on the brat,
Beat on the brat,
Beat on the brat,
With a baseball bat!
Oh yeah,oh yeah,o-oh...

Oh yeah,oh yeah,o-oh...

Chorus:
What can you do?
What can you do?
With a brat like that,
Always on you back,
What can you lose...?

What can you do?
What can you do?
With a brat like that,
Always on you back,
What can you lose...?

lose...
comments
We did not receive enough feedback on this tab! Please rate:
print report bad tab
1 2 3 4 5
1 comment total.
0 reply
Rocknrolla35 wrote on January 29 2014, 02:50 pm

My God, those chord names are SOOOO OFF!!!!!!

I want to post or [tab]
guest
You may want to rate the tab now too:
select rating
Please do not post tabs as comments. Select "correction" instead!