Oops, an error
Loading. Please wait.

Blitzkrieg Bop Tab

version 1
304,065 views 378 this week
69 commentsread comments
1 2 3 4 5
accurate
x 197
add to favorites
launch autoscroll
font size
0
reset
how to read this tab
guitar tuner
Autoscroll
slow
fast
+/-
esc
set tempo
stop
Help us to improve Ultimate-Guitar.com Take our survey!
×
e|-------------------------------------|  --------------------------------------------------------|
B|-------------------------------------|  --------------------------------------------------------|
G|-------------------------------------|  --------------------------------------------------------|
D|------------------7-7-7-9--9-9-9-9---|3X---------7-7-7-7----------------------------------------|
A|7-7-7-7--7-7-7-7--5-5-5-7--7-7-7-7---|  7-7-7-7--5-5-5-5---------7-7-7-7----------7------7-7-7--|
E|5-5-5-5--5-5-5-5---------------------|  5-5-5-5------------------5-5-5-5----------5------5-5-5--|

e|-------------------------------------|  --------------------------------------------------------|
B|-------------------------------------|  --------------------------------------------------------|
G|-------------------------------------|  --------------------------------------------------------|
D|------------------7-7-7-9--9-9-9-9---|3X---------7-7-7-7----------------------------------------|
A|7-7-7-7--7-7-7-7--5-5-5-7--7-7-7-7---|  7-7-7-7--5-5-5-5---------7-7-7-7----------7------7-7-7--|
E|5-5-5-5--5-5-5-5---------------------|  5-5-5-5------------------5-5-5-5----------5------5-5-5--|

Hey Ho, Let's go 3X

e|--------------------------------------|
B|--------------------------------------|
G|--------------------------------------|
D|--------------------------------------|
A|7-7-7-7--7-7-7-7--7-7-7-7--7-7-7-7----|
E|5-5-5-5--5-5-5-5--5-5-5-5--5-5-5-5----|

e|-------------------------------------|  --------------------------------------------------------|
B|-------------------------------------|  --------------------------------------------------------|
G|-------------------------------------|  --------------------------------------------------------|
D|------------------7-7-7-9--9-9-9-9---|3X---------7-7-7-7----------------------------------------|
A|7-7-7-7--7-7-7-7--5-5-5-7--7-7-7-7---|  7-7-7-7--5-5-5-5---------7-7-7-7----------7------7-7-7--|
E|5-5-5-5--5-5-5-5---------------------|  5-5-5-5------------------5-5-5-5----------5------5-5-5--|

e|-------------------------------------|  --------------------------------------------------------|
B|-------------------------------------|  --------------------------------------------------------|
G|-------------------------------------|  --------------------------------------------------------|
D|------------------7-7-7-9--9-9-9-9---|3X---------7-7-7-7----------------------------------------|
A|7-7-7-7--7-7-7-7--5-5-5-7--7-7-7-7---|  7-7-7-7--5-5-5-5---------7-7-7-7----------7------7-7-7--|
E|5-5-5-5--5-5-5-5---------------------|  5-5-5-5------------------5-5-5-5----------5------5-5-5--|

e|-------------------------------------| ---------------------------------------------------|
B|-------------------------------------| ---------------------------------------------------|
G|-------------------------------------| ---------------------------------------------------|
D|7-7-7-7--7-7-7-7--7-7-7-7--7-7-7-7---| -------------------------7--------7-7--------------|
A|5-5-5-5--5-5-5-5--5-5-5-5--5-5-5-5---| 7-7-7-7--7--------7-7-7--5--------5-5--7--7-7-7-7--|
E|-------------------------------------| 5-5-5-5--5--------5-5-5--------------5----5-5-5-5--|

e|-------------------------------------| ---------------------------------------------------|
B|-------------------------------------| ---------------------------------------------------|
G|-------------------------------------| ---------------------------------------------------|
D|7-7-7-7--7-7-7-7--7-7-7-7--7-7-7-7---| -------------------------7--------7-7--9--9-9-9-9--|
A|5-5-5-5--5-5-5-5--5-5-5-5--5-5-5-5---| 9-9-9-9--9--------9-9-9--5--------5-5--7--7-7-7-7--|
E|-------------------------------------| 7-7-7-7--7--------7-7-7----------------------------|

e|-------------------------------------|  --------------------------------------------------------|
B|-------------------------------------|  --------------------------------------------------------|
G|-------------------------------------|  --------------------------------------------------------|
D|------------------7-7-7-9--9-9-9-9---|3X---------7-7-7-7----------------------------------------|
A|7-7-7-7--7-7-7-7--5-5-5-7--7-7-7-7---|  7-7-7-7--5-5-5-5---------7-7-7-7----------7------7-7-7--|
E|5-5-5-5--5-5-5-5---------------------|  5-5-5-5------------------5-5-5-5----------5------5-5-5--|

e|-------------------------------------|  --------------------------------------------------------|
B|-------------------------------------|  --------------------------------------------------------|
G|-------------------------------------|  --------------------------------------------------------|
D|------------------7-7-7-9--9-9-9-9---|3X---------7-7-7-7----------------------------------------|
A|7-7-7-7--7-7-7-7--5-5-5-7--7-7-7-7---|  7-7-7-7--5-5-5-5---------7-7-7-7----------7------7-7-7--|
E|5-5-5-5--5-5-5-5---------------------|  5-5-5-5------------------5-5-5-5----------5------5-5-5--|
Suggest correction
comments
print report bad tab
69 comments total. Showing first comments.
+6 reply
Kevinita 10 wrote on November 13 2002, 12:00 am

Great tab

+3 reply
guitarock 50 wrote on March 29 2003, 12:00 am

great job
i love this song

+1 reply
j_0_5_h19 0 wrote on April 8 2003, 12:00 am

hey, great tab, ive heard and seen ppl play this on two guitars, i was just wonderin if the side on the right, is guitar 2?

guest
You may want to rate the tab now too:
select rating
Please do not post tabs as comments. Select "correction" instead!