Oops, an error
Loading. Please wait.
We have an official Blitzkrieg Bop tab made by UG professional guitarists. Check out the tab »
×
by Ramones
1,867 views 21 this week
no commentswrite comment
1 2 3 4 5
x 13
add to favorites
×
Save as Personal and add changes to this tab that will be seen only by you. Learn more ›
×
You can save this tab as Personal to edit and correct it or add notes. All changes will be seen only by you. Learn more »
launch autoscroll
font size
0
reset
guitar tuner
backing track
0:00
0:00
edit
Autoscroll
slow
fast
+/-
esc
set tempo
stop
Title: Blitzkrieg Bop
Artist: Ramones
Album: Ramones
Tuning: Standard (E A D G)
Tab Author: Pearce Hamblin (The Bass Diaries)

Intro
G|---------------------------------|---------------------------|---------------------------------|
D|---------------------------------|---------------------------|---------------------------------|
A|---------------------------------|-5----5---7----7---7---7---|---------------------------------|
E|-5---5---5---5---5---5---5---5---|---------------------------|-5---5---5---5---5---5---5---5---|


G|---------------------------|---------------------------------|---------------------------|
D|---------------------------|---------------------------------|---------------------------|
A|-5----5---7----7---7---7---|---------------------------------|-5----5---7----7---7---7---|
E|---------------------------|-5---5---5---5---5---5---5---5---|---------------------------|


G|---------------------------|---------------------------------|---------------------------------|
D|---------------------------|---------------------------------|---------------------------------|
A|--------------5----5---5---|---------------------------------|---------------------------------|
E|-5----5---5----------------|-5---5---5---5---5---5---5---5---|-5---5---5---5---5---5---5---5---|


G|---------------------------|---------------------------------|---------------------------|
D|---------------------------|---------------------------------|---------------------------|
A|-5----5---7----7---7---7---|---------------------------------|-5----5---7----7---7---7---|
E|---------------------------|-5---5---5---5---5---5---5---5---|---------------------------|


G|---------------------------------|---------------------------|---------------------------|
D|---------------------------------|---------------------------|---------------------------|
A|---------------------------------|-5----5---7----7---7---7---|--------------5----5---5---|
E|-5---5---5---5---5---5---5---5---|---------------------------|-5----5---5----------------|

                                   Bridge 1
G|---------------------------------|--------|--------|--------|--------|---------------------------------|
D|---------------------------------|--------|--------|--------|--------|---------------------------------|
A|---------------------------------|--------|--------|--------|--------|---------------------------------|
E|-5---5---5---5---5---5---5-------|--------|--------|--------|--------|-5---5---5---5---5---5---5---5---|


G|---------------------------------|---------------------------------|---------------------------------|
D|---------------------------------|---------------------------------|---------------------------------|
A|---------------------------------|---------------------------------|---------------------------------|
E|-5---5---5---5---5---5---5---5---|-5---5---5---5---5---5---5---5---|-5---5---5---5---5---5---5---5---|

Verse 1
G|---------------------------------|---------------------------|---------------------------------|
D|---------------------------------|---------------------------|---------------------------------|
A|---------------------------------|-5----5---7----7---7---7---|---------------------------------|
E|-5---5---5---5---5---5---5---5---|---------------------------|-5---5---5---5---5---5---5---5---|


G|---------------------------|---------------------------------|---------------------------|
D|---------------------------|---------------------------------|---------------------------|
A|-5----5---7----7---7---7---|---------------------------------|-5----5---7----7---7---7---|
E|---------------------------|-5---5---5---5---5---5---5---5---|---------------------------|


G|---------------------------|---------------------------------|---------------------------------|
D|---------------------------|---------------------------------|---------------------------------|
A|--------------5----5---5---|---------------------------------|---------------------------------|
E|-5----5---5----------------|-5---5---5---5---5---5---5---5---|-5---5---5---5---5---5---5---5---|


G|---------------------------|---------------------------------|---------------------------|
D|---------------------------|---------------------------------|---------------------------|
A|-5----5---7----7---7---7---|---------------------------------|-5----5---7----7---7---7---|
E|---------------------------|-5---5---5---5---5---5---5---5---|---------------------------|


G|---------------------------------|---------------------------|---------------------------|
D|---------------------------------|---------------------------|---------------------------|
A|---------------------------------|-5----5---7----7---7---7---|--------------5----5---5---|
E|-5---5---5---5---5---5---5---5---|---------------------------|-5----5---5----------------|

                                   Chorus 1
G|---------------------------------|---------------------------------|------------------------------|
D|---------------------------------|---------------------------------|------------------------------|
A|---------------------------------|-5---5---5---5---5---5---5---5---|-5---5---5---5---5----5---5---|
E|-5---5---5---5---5---5---5---5---|---------------------------------|------------------------------|


G|---------------------------|---------------------------|---------------------------------|
D|---------------------------|---------------------------|---------------------------------|
A|---------------------------|-5----5--------------------|-5---5---5---5---5---5---5---5---|
E|-5----5---5---5----5---5---|----------5---5----5---5---|---------------------------------|


G|---------------------------------|------------------------------|---------------------------|
D|---------------------------------|------------------------------|---------------------------|
A|-5---5---5---5---5---5---5---5---|------------------------------|-5----5---7----7---7---7---|
E|---------------------------------|-7----7---7---7---7---7---7---|---------------------------|

Verse 2
G|---------------------------------|---------------------------|---------------------------------|
D|---------------------------------|---------------------------|---------------------------------|
A|---------------------------------|-5----5---7----7---7---7---|---------------------------------|
E|-5---5---5---5---5---5---5---5---|---------------------------|-5---5---5---5---5---5---5---5---|


G|---------------------------|---------------------------------|---------------------------|
D|---------------------------|---------------------------------|---------------------------|
A|-5----5---7----7---7---7---|---------------------------------|-5----5---7----7---7---7---|
E|---------------------------|-5---5---5---5---5---5---5---5---|---------------------------|


G|---------------------------|---------------------------------|---------------------------------|
D|---------------------------|---------------------------------|---------------------------------|
A|--------------5----5---5---|---------------------------------|---------------------------------|
E|-5----5---5----------------|-5---5---5---5---5---5---5---5---|-5---5---5---5---5---5---5---5---|


G|---------------------------|---------------------------------|---------------------------|
D|---------------------------|---------------------------------|---------------------------|
A|-5----5---7----7---7---7---|---------------------------------|-5----5---7----7---7---7---|
E|---------------------------|-5---5---5---5---5---5---5---5---|---------------------------|


G|---------------------------------|---------------------------|---------------------------|
D|---------------------------------|---------------------------|---------------------------|
A|---------------------------------|-5----5---7----7---7---7---|--------------5----5---5---|
E|-5---5---5---5---5---5---5---5---|---------------------------|-5----5---5----------------|

                                   Chorus 2
G|---------------------------------|---------------------------------|------------------------------|
D|---------------------------------|---------------------------------|------------------------------|
A|---------------------------------|-5---5---5---5---5---5---5---5---|-5---5---5---5---5----5---5---|
E|-5---5---5---5---5---5---5---5---|---------------------------------|------------------------------|


G|---------------------------|---------------------------|---------------------------------|
D|---------------------------|---------------------------|---------------------------------|
A|---------------------------|-5----5--------------------|-5---5---5---5---5---5---5---5---|
E|-5----5---5---5----5---5---|----------5---5----5---5---|---------------------------------|


G|---------------------------------|------------------------------|---------------------------|
D|---------------------------------|------------------------------|---------------------------|
A|-5---5---5---5---5---5---5---5---|------------------------------|-5----5---7----7---7---7---|
E|---------------------------------|-7----7---7---7---7---7---7---|---------------------------|

Verse 3
G|---------------------------------|---------------------------|---------------------------------|
D|---------------------------------|---------------------------|---------------------------------|
A|---------------------------------|-5----5---7----7---7---7---|---------------------------------|
E|-5---5---5---5---5---5---5---5---|---------------------------|-5---5---5---5---5---5---5---5---|


G|---------------------------|---------------------------------|---------------------------|
D|---------------------------|---------------------------------|---------------------------|
A|-5----5---7----7---7---7---|---------------------------------|-5----5---7----7---7---7---|
E|---------------------------|-5---5---5---5---5---5---5---5---|---------------------------|


G|---------------------------|---------------------------------|---------------------------------|
D|---------------------------|---------------------------------|---------------------------------|
A|--------------5----5---5---|---------------------------------|---------------------------------|
E|-5----5---5----------------|-5---5---5---5---5---5---5---5---|-5---5---5---5---5---5---5---5---|


G|---------------------------|---------------------------------|---------------------------|
D|---------------------------|---------------------------------|---------------------------|
A|-5----5---7----7---7---7---|---------------------------------|-5----5---7----7---7---7---|
E|---------------------------|-5---5---5---5---5---5---5---5---|---------------------------|


G|---------------------------------|---------------------------|---------------------------|
D|---------------------------------|---------------------------|---------------------------|
A|---------------------------------|-5----5---7----7---7---7---|--------------5----5---5---|
E|-5---5---5---5---5---5---5---5---|---------------------------|-5----5---5----------------|

                                   Bridge 2/Outro
G|---------------------------------|--------|--------|--------|--------|---------------------------------|
D|---------------------------------|--------|--------|--------|--------|---------------------------------|
A|---------------------------------|--------|--------|--------|--------|---------------------------------|
E|-5---5---5---5---5---5---5-------|--------|--------|--------|--------|-5---5---5---5---5---5---5---5---|


G|---------------------------------|---------------------------------|---------------------------------|
D|---------------------------------|---------------------------------|---------------------------------|
A|---------------------------------|---------------------------------|---------------------------------|
E|-5---5---5---5---5---5---5---5---|-5---5---5---5---5---5---5---5---|-5---5---5---5---5---------------|



            
            
Suggest correction
Creating personal tab
Creating personal tab
You can edit any tab online and save it as your Personal.

You can edit, replace or remove any tab part or add personal notes – all changes will be seen only by you.

Personal tabs can be accessed anytime from any device, even offline.
Learn more »
comments
print report bad tab
guest
You may want to rate the tab now too:
select rating
Wanna post a correction for this tab? Suggest correction