Oops, an error
Loading. Please wait.

Blitzkrieg Bop Tab

version 5
135,533 views 267 this week
22 commentsread comments
1 2 3 4 5
accurate
x 54
add to favorites
launch autoscroll
font size
0
reset
how to read this tab
guitar tuner
Autoscroll
slow
fast
+/-
esc
set tempo
stop
Help us to improve Ultimate-Guitar.com Take our survey!
×
Author
Tablatura de NICO M. (nicokbbl@hotmail.com)

Artista: Ramones
Cancion: Blitzkrieg Bop
Album: The Ramones  (1976) 


[Intro]

e|---------------------------------------------------------|
B|---------------------------------------------------------|
G|-------------7--7/9--9-9---------------------------------|x3
D|--7--7-7-7-7-7--7/9--9-9---------------------------------|
A|--7--7-7-7-7-5--5/7--7-7---------------------------------|
6|--5--5-5-5-5---------------------------------------------|



e|---------------------------------------------------------|
B|---------------------------------------------------------|
G|----------7-7--------------------------------------------|
D|--7-7-7-7-7-7-7-7-7-7------------------------------------|
A|--7-7-7-7-5-5-7-7-7-7------------------------------------|
6|--5-5-5-5-----5-5-5-5------------------------------------|



e|---------------------------------------------------------|
B|---------------------------------------------------------|
G|-------------7--7/9--9-9---------------------------------|x3
D|--7--7-7-7-7-7--7/9--9-9---------------------------------|
A|--7--7-7-7-7-5--5/7--7-7---------------------------------|
6|--5--5-5-5-5---------------------------------------------|



[Chorus]

e|---------------------------------------------------------|
B|---------------------------------------------------------|
G|----------7-7--------------------------------------------|
D|--7-7-7-7-7-7-7-7-7-7------------------------------------|
A|--7-7-7-7-5-5-7-7-7-7------------------------------------|
6|--5-5-5-5-----5-5-5-5------------------------------------|


  Hey ho, let's go
  Hey ho, let's go


e|---------------------------------------------------------|
B|---------------------------------------------------------|
G|---------------------------------------------------------|
D|--7-7-7-7-7-7-7-7-7-7-7-7-7------------------------------|
A|--7-7-7-7-7-7-7-7-7-7-7-7-7------------------------------|
6|--5-5-5-5-5-5-5-5-5-5-5-5-5------------------------------|


  Hey ho, let's go
  Hey ho, let's go


[Verse]

e|---------------------------------------------------------|
B|---------------------------------------------------------|
G|-------------7--7/9--9-9---------------------------------|x3
D|--7--7-7-7-7-7--7/9--9-9---------------------------------|
A|--7--7-7-7-7-5--5/7--7-7---------------------------------|
6|--5--5-5-5-5---------------------------------------------|


  They're forming in a straight line
  They're going through a tight wind
  The kids are losing their minds


e|---------------------------------------------------------|
B|---------------------------------------------------------|
G|----------7-7--------------------------------------------|
D|--7-7-7-7-7-7-7-7-7-7------------------------------------|
A|--7-7-7-7-5-5-7-7-7-7------------------------------------|
6|--5-5-5-5-----5-5-5-5------------------------------------|


  The Blitzkrieg Bop



e|---------------------------------------------------------|
B|---------------------------------------------------------|
G|-------------7--7/9--9-9---------------------------------|x3
D|--7--7-7-7-7-7--7/9--9-9---------------------------------|
A|--7--7-7-7-7-5--5/7--7-7---------------------------------|
6|--5--5-5-5-5---------------------------------------------|



  They're piling in the back seat
  They're generating steam heat
  Pulsating to the back beat


e|---------------------------------------------------------|
B|---------------------------------------------------------|
G|----------7-7--------------------------------------------|
D|--7-7-7-7-7-7-7-7-7-7------------------------------------|
A|--7-7-7-7-5-5-7-7-7-7------------------------------------|
6|--5-5-5-5-----5-5-5-5------------------------------------|


  The Blitzkrieg Bop


[Chorus]

e|---------------------------------------------------------|
B|---------------------------------------------------------|
G|------------------------------------------------7-7------|
D|--9-9-9-9-9-9-9-9-9-9-9-9-7-7-7-7-7-7-7-7-7-7-7-7-7-7-7--|
A|--9-9-9-9-9-9-9-9-9-9-9-9-7-7-7-7-7-7-7-7-7-7-7-5-5-7-7--|
6|--7-7-7-7-7-7-7-7-7-7-7-7-5-5-5-5-5-5-5-5-5-5-5-----5-5--|

  Hey ho, let's go
  Shoot'em in the back now

e|--------------------------------------------------------------------------|
B|--------------------------------------------------------------------------|
G|------------------------------------------------------------7-7--7/9--9-9-|
D|--9-9-9-9-9-9-9-9-9-9-9-9-7-7-7-7-7-7-7-7-7-7-7-9-9-9-9-9-9-7-7--7/9--9-9-|
A|--9-9-9-9-9-9-9-9-9-9-9-9-7-7-7-7-7-7-7-7-7-7-7-9-9-9-9-9-9-5-5--5/7--7-7-|
6|--7-7-7-7-7-7-7-7-7-7-7-7-5-5-5-5-5-5-5-5-5-5-5-7-7-7-7-7-7---------------|


  What they want, I don't know
  They're all reved up and ready to go


[Verse]

e|---------------------------------------------------------|
B|---------------------------------------------------------|
G|-------------7--7/9--9-9---------------------------------|x3
D|--7--7-7-7-7-7--7/9--9-9---------------------------------|
A|--7--7-7-7-7-5--5/7--7-7---------------------------------|
6|--5--5-5-5-5---------------------------------------------|


  They're forming in a straight line
  They're going through a tight wind
  The kids are losing their minds


e|---------------------------------------------------------|
B|---------------------------------------------------------|
G|----------7-7--------------------------------------------|
D|--7-7-7-7-7-7-7-7-7-7------------------------------------|
A|--7-7-7-7-5-5-7-7-7-7------------------------------------|
6|--5-5-5-5-----5-5-5-5------------------------------------|


  The Blitzkrieg Bop


e|---------------------------------------------------------|
B|---------------------------------------------------------|
G|-------------7--7/9--9-9---------------------------------|x3
D|--7--7-7-7-7-7--7/9--9-9---------------------------------|
A|--7--7-7-7-7-5--5/7--7-7---------------------------------|
6|--5--5-5-5-5---------------------------------------------|



  They're piling in the back seat
  They're generating steam heat
  Pulsating to the back beat


e|---------------------------------------------------------|
B|---------------------------------------------------------|
G|----------7-7--------------------------------------------|
D|--7-7-7-7-7-7-7-7-7-7------------------------------------|
A|--7-7-7-7-5-5-7-7-7-7------------------------------------|
6|--5-5-5-5-----5-5-5-5------------------------------------|


  The Blitzkrieg Bop


[Chorus]

e|---------------------------------------------------------|
B|---------------------------------------------------------|
G|------------------------------------------------7-7------|
D|--9-9-9-9-9-9-9-9-9-9-9-9-7-7-7-7-7-7-7-7-7-7-7-7-7-7-7--|
A|--9-9-9-9-9-9-9-9-9-9-9-9-7-7-7-7-7-7-7-7-7-7-7-5-5-7-7--|
6|--7-7-7-7-7-7-7-7-7-7-7-7-5-5-5-5-5-5-5-5-5-5-5-----5-5--|


  Hey ho, let's go
  Shoot'em in the back now

e|--------------------------------------------------------------------------|
B|--------------------------------------------------------------------------|
G|------------------------------------------------------------7-7--7/9--9-9-|
D|--9-9-9-9-9-9-9-9-9-9-9-9-7-7-7-7-7-7-7-7-7-7-7-9-9-9-9-9-9-7-7--7/9--9-9-|
A|--9-9-9-9-9-9-9-9-9-9-9-9-7-7-7-7-7-7-7-7-7-7-7-9-9-9-9-9-9-5-5--5/7--7-7-|
6|--7-7-7-7-7-7-7-7-7-7-7-7-5-5-5-5-5-5-5-5-5-5-5-7-7-7-7-7-7---------------|


  What they want, I don't know
  They're all reved up and ready to go



[Verse]

e|---------------------------------------------------------|
B|---------------------------------------------------------|
G|-------------7--7/9--9-9---------------------------------|x3
D|--7--7-7-7-7-7--7/9--9-9---------------------------------|
A|--7--7-7-7-7-5--5/7--7-7---------------------------------|
6|--5--5-5-5-5---------------------------------------------|


  They're forming in a straight line
  They're going through a tight wind
  The kids are losing their minds


e|---------------------------------------------------------|
B|---------------------------------------------------------|
G|----------7-7--------------------------------------------|
D|--7-7-7-7-7-7-7-7-7-7------------------------------------|
A|--7-7-7-7-5-5-7-7-7-7------------------------------------|
6|--5-5-5-5-----5-5-5-5------------------------------------|


  The Blitzkrieg Bop


e|---------------------------------------------------------|
B|---------------------------------------------------------|
G|-------------7--7/9--9-9---------------------------------|x3
D|--7--7-7-7-7-7--7/9--9-9---------------------------------|
A|--7--7-7-7-7-5--5/7--7-7---------------------------------|
6|--5--5-5-5-5---------------------------------------------|



  They're piling in the back seat
  They're generating steam heat
  Pulsating to the back beat


e|---------------------------------------------------------|
B|---------------------------------------------------------|
G|----------7-7--------------------------------------------|
D|--7-7-7-7-7-7-7-7-7-7------------------------------------|
A|--7-7-7-7-5-5-7-7-7-7------------------------------------|
6|--5-5-5-5-----5-5-5-5------------------------------------|


  The Blitzkrieg Bop


[Outro]

  Hey ho, let's go
  Hey ho, let's go



************************************

| /  Slide up

************************************
Suggest correction
What's this?
You can suggest a correction to this tab. Community and Mods will review your correction and vote to approve or reject it.
comments
print report bad tab
22 comments total. Showing first comments. show 1 bad comment
+4 reply
Iboseth 396 wrote on March 17 2005, 12:00 am

It's played with power chords, not barred chords.

+2 reply
NeverBeenKilled 114 wrote on March 17 2005, 12:00 am

^Yep it's powerchords.

guest
You may want to rate the tab now too:
select rating
Please do not post tabs as comments. Select "correction" instead!