Oops, an error
Loading. Please wait.

Blitzkrieg Bop Tab

17,690 views 48 this week
no commentswrite comment
1 2 3 4 5
x 25
add to favorites
launch autoscroll
font size
0
reset
how to read this tab
guitar tuner
Autoscroll
slow
fast
+/-
esc
set tempo
stop
Help us to improve Ultimate-Guitar.com Take our survey!
×
Author
Song: Blitzkrieg Bop
Artist: Ramones
Standard Tuning


[Main Riff] 
(Intro/Verse)

   A5               D5   E5
E|-----------------------------|
B|-----------------------------|
G|------------------7-7--9-9-9-|  
D|-7-7-7-7-7-7-7-7--7-7--9-9-9-|
A|-7-7-7-7-7-7-7-7--5-5--7-7-7-|
E|-5-5-5-5-5-5-5-5-------------|(x3)

   A5     D5     A5
E|-------------------------------|
B|-------------------------------|
G|--------7-7-7------------------|
D|-7-7-7--7-7-7--7-7-7-7-7-7-7-7-|
A|-7-7-7--5-5-5--7-7-7-7-7-7-7-7-|
E|-5-5-5---------5-5-5-5-5-5-5-5-|

Play Main Riff twice


Aey oh, let's go
Aey oh, let's go
Aey oh, let's go
Aey oh, let's go

   A5
E|---|
B|---|
G|---| 
D|-7-|
A|-7-|
E|-5-|(x12)


Main Riff (x2) (They're formin' in a straight line...)


[Bridge]

(...Shoot 'em in the back now...)
   D5     A5    D5   A5
E|---------------------|
B|---------------------|
G|-7------------7-7----|
D|-7-x16--7-----7-7--7-|
A|-5------7-x8--5-5--7-|
E|--------5----------5-|

   D5     C5     D5   E5
E|----------------------|
B|----------------------|
G|-7------4-4-4--7-7--9-|
D|-7-x16--4-4-4--7-7--9-|
A|-5------2-2-2--5-5--7-|
E|----------------------|


[Main Riff] (x2)

[Bridge]

[Main Riff] (x2)


[Ending]

   A5
E|---|
B|---|
G|---|
D|-7-| 
A|-7-|
E|-5-|(x12)


************************************

| x  Dead note

************************************
Suggest correction
comments
print report bad tab
guest
You may want to rate the tab now too:
select rating
Wanna post a correction for this tab? Suggest correction