Oops, an error
Loading. Please wait.

Bop Til You Drop Bass Tab

695 views 1 this week
no commentswrite comment
1 2 3 4 5
3 more votes to show rating
add to favorites
launch autoscroll
font size
0
reset
guitar tuner
Autoscroll
slow
fast
+/-
esc
set tempo
stop
Help us to improve Ultimate-Guitar.com Take our survey!
×
Author
Difficulty
novice
this is so ez rate it let me know if tabed out right

tuneing
G,D,A,E

intro   play 2X's

|-----------------------------|
|-----------------------------|
|-----------------------------|
|-0-0-0-0-0-0-0-0-0-0-5-0-0-5-|

verse

|---------------------------------|
|---------------------------------|
|---------------------------------|
|-0-0-0-0-0-0-3-5-0-0-0-0-0-0-3-5-|

They want Your Blood

|---------------------------------|
|---------------------------------|
|-3-3-3-3-3-3-3-3-2-2-2-2-2-2-2-2-|
|---------------------------------|

|--------------------------------|
|--------------------------------|
|-----7--------------------------|
|-0-0------7-7-7-5-5-5-3-3-0-3-0-|
Suggest correction
Give kudos to tab author, rate the tab!
1 2 3 4 5
comments
print report bad tab
guest
You may want to rate the tab now too:
select rating
Wanna post a correction for this tab? Suggest correction