Oops, an error
Loading. Please wait.
We have an official California Sun tab made by UG professional guitarists. Check out the tab »
×
by Ramones
15,694 views 84 this week
3 commentsread comments
1 2 3 4 5
x 22
add to favorites
launch autoscroll
font size
0
reset
how to read this tab
guitar tuner
Autoscroll
slow
fast
+/-
esc
set tempo
stop
Part 1
e|-----------------------------------------------------------------|
B|-----------------------------------------------------------------|
G|-99999999--------------------------------------------------------|
D|-99999999-77777777-----------------------------------------------|
A|-77777777-77777777-----------------------------------------------|
E|----------55555555-----------------------------------------------|
Part 2
e|----------------------------------------------------------------|
B|----------------------------------------------------------------|
G|-99999999-66666666-------------9999-----------------------------|
D|-99999999-66666666-7777--9999--9999-----------------------------|
A|-77777777-44444444-7777--9999--7777-----------------------------|
E|-------------------5555--7777-----------------------------------|
Other Part 
e|-----------------0-----| 
B|-------0-0-0-2-2---0---| 
G|-----1-----------------| 
D|-2-2-------------------| 
A|-----------------------| 
E|-----------------------|
outro
e|----------------------------------------------------------------|
B|----------------------------------------------------------------|
G|-99999999-66666666-----------99999999-66666666-----------9999---|
D|-99999999-66666666-7777-9999-99999999-66666666-7777-9999-9999---|
A|-77777777-44444444-7777-9999-77777777-44444444-7777-9999-7777---|
E|-------------------5555-7777-------------------5555-7777--------|
Suggest correction
comments
print report bad tab
3 comments total.
+1 reply
ianscrandlecake 10 Mar 16, 2007 01:44 AM

you're a good egg
wicked tab

0 reply
thrice92 10 Jul 09, 2007 11:03 AM

definately the right sound i like it i think the intro is played on the first couple frets because in the video i shows it differently
i like playing it this way better actually
p.s. in the video guitar is the white shirted guy the one in the black shirt is the bass and he does play on these frets thats what give the idea the song is played lower

-1 reply
headbanger_89 180 Dec 30, 2008 02:21 PM

This tab is wrong... E and A powerchords must be played on the first couple frets... Riff is this:

(X 2)
e|-----------------------------------------------------------------|
B|-----------------------------------------------------------------|
G|-----------------2--2-2-2-2-2-2----------------2--2-2-2-2-2-2----|
D|--2--2-2-2-2-2-2-2--2-2-2-2-2-2-2--2-2-2-2-2-2-2--2-2-2-2-2-2----|
A|--2--2-2-2-2-2-2-0--0-0-0-0-0-0-2--2-2-2-2-2-2-0--0-0-0-0-0-0----|
E|--0--0-0-0-0-0-0----------------0--0-0-0-0-0-0-------------------|

e|-----------------------------------------------------------------|
B|-----------------------------------------------------------------|
G|-----------------6--6-6-6-6-6-6---------------9--9-9-------------|
D|--2--2-2-2-2-2-2-6--6-6-6-6-6-6-7--7-7-9--9-9-9--9-9-------------|
A|--2--2-2-2-2-2-2-4--4-4-4-4-4-4-7--7-7-9--9-9-7--7-7-------------|
E|--0--0-0-0-0-0-0----------------5--5-5-7--7-7--------------------|

guest
You may want to rate the tab now too:
select rating
Wanna post a correction for this tab? Suggest correction