Oops, an error
Loading. Please wait.
We have an official California Sun tab made by UG professional guitarists. Check out the tab »
×
by Ramones
705 views 1 this week
no commentswrite comment
1 2 3 4 5
2 more votes to show rating
add to favorites
×
Save as Personal and add changes to this tab that will be seen only by you. Learn more ›
×
You can save this tab as Personal to edit and correct it or add notes. All changes will be seen only by you. Learn more »
save as personal
new!
launch autoscroll
font size
0
reset
how to read this tab
guitar tuner
Autoscroll
slow
fast
+/-
esc
set tempo
stop
Author
        (Intro)
"One, two, three, four!"

       (E)               (A)
|-----------------|-----------------|
|-0---0-0-0-0-0-0-|-2---2-2-2-2-2-2-|
|-1---1-1-1-1-1-1-|-2---2-2-2-2-2-2-| (x4)
|-2---2-2-2-2-2-2-|-2---2-2-2-2-2-2-|
|-2---2-2-2-2-2-2-|-0---0-0-0-0-0-0-|
|-0---0-0-0-0-0-0-|-----------------|

       (E)               (C#m)         (A)       (B)       (E)
|-----------------|-4---4-4-4-4-4-4-|---------|---------|---------|
|-0---0-0-0-0-0-0-|-5---5-5-5-5-5-5-|---------|---------|-9---9-9-|
|-1---1-1-1-1-1-1-|-6---6-6-6-6-6-6-|-6---6-6-|-8---8-8-|-9---9-9-|
|-2---2-2-2-2-2-2-|-6---6-6-6-6-6-6-|-7---7-7-|-9---9-9-|-9---9-9-|
|-2---2-2-2-2-2-2-|-4---4-4-4-4-4-4-|-7---7-7-|-9---9-9-|-7---7-7-|
|-0---0-0-0-0-0-0-|-----------------|-5---5-5-|-7---7-7-|---------|

               (Verse)

"Well, I'm goin' out West where I belong."

|-------------------------------0----|
|----------0---0---0--0---2--2-----0-|
|-------1----------------------------|
|-2--2-------------------------------|
|------------------------------------|
|------------------------------------|

"Where the days are short and the nights are long."

|-------------------------------0----|
|----------0---0---0--0---2--2-----0-|
|-------1----------------------------|
|-2--2-------------------------------|
|------------------------------------|
|------------------------------------|


"And I walk,    and they walk"

       (E)               (A)
|-----------------|-----------------|
|-0---0-0-0-0-0-0-|-2---2-2-2-2-2-2-|
|-1---1-1-1-1-1-1-|-2---2-2-2-2-2-2-|
|-2---2-2-2-2-2-2-|-2---2-2-2-2-2-2-|
|-2---2-2-2-2-2-2-|-0---0-0-0-0-0-0-|
|-0---0-0-0-0-0-0-|-----------------|

"I  twist,    and they twist."

       (E)               (A)
|-----------------|-----------------|
|-0---0-0-0-0-0-0-|-2---2-2-2-2-2-2-|
|-1---1-1-1-1-1-1-|-2---2-2-2-2-2-2-|
|-2---2-2-2-2-2-2-|-2---2-2-2-2-2-2-|
|-2---2-2-2-2-2-2-|-0---0-0-0-0-0-0-|
|-0---0-0-0-0-0-0-|-----------------|


"And I shimmy, and they shimmy."

       (E)               (A)
|-----------------|-----------------|
|-0---0-0-0-0-0-0-|-2---2-2-2-2-2-2-|
|-1---1-1-1-1-1-1-|-2---2-2-2-2-2-2-|
|-2---2-2-2-2-2-2-|-2---2-2-2-2-2-2-|
|-2---2-2-2-2-2-2-|-0---0-0-0-0-0-0-|
|-0---0-0-0-0-0-0-|-----------------|

"And I fly,    and they fly."

       (E)               (A)
|-----------------|-----------------|
|-0---0-0-0-0-0-0-|-2---2-2-2-2-2-2-|
|-1---1-1-1-1-1-1-|-2---2-2-2-2-2-2-|
|-2---2-2-2-2-2-2-|-2---2-2-2-2-2-2-|
|-2---2-2-2-2-2-2-|-0---0-0-0-0-0-0-|
|-0---0-0-0-0-0-0-|-----------------|

                       (Chorus)

       (E)                     (C#m)          (A)    (B)       (E)
"Well, we're out there havin' fun      in the warm California sun."

|-----------------|-4---4-4-4-4-4-4-|---------|---------|---------|
|-0---0-0-0-0-0-0-|-5---5-5-5-5-5-5-|---------|---------|-9---9-9-|
|-1---1-1-1-1-1-1-|-6---6-6-6-6-6-6-|-6---6-6-|-8---8-8-|-9---9-9-|
|-2---2-2-2-2-2-2-|-6---6-6-6-6-6-6-|-7---7-7-|-9---9-9-|-9---9-9-|
|-2---2-2-2-2-2-2-|-4---4-4-4-4-4-4-|-7---7-7-|-9---9-9-|-7---7-7-|
|-0---0-0-0-0-0-0-|-----------------|-5---5-5-|-7---7-7-|---------|

                 (Verse 2)

"Well, I'm goin' out West down on the coast." (riff)

"Where California girls are really the most." (riff)

       (E)            (A)      (E)             (A)
"And I walk, and they walk. I twist, and they twist."
  
       (E)               (A)          (E)           (A)
"And I shimmy, and they shimmy. And I fly, and they fly."

            (E)               (C#m)       (A)     (B)      (E)
"Well, we're out there havin' fun in the warm California sun."

                      (Bridge)

|---------------------------------0----|
|------------0---0---0--0---2--2-----0-|
|---------1----------------------------|
|-2--2--2------------------------------|
|--------------------------------------|
|--------------------------------------|

|-------------------------------0----|
|----------0---0---0--0---2--2-----0-|
|-------1----------------------------|
|-2--2-------------------------------|
|------------------------------------|
|------------------------------------|

       (E)               (A)
|-----------------|-----------------|
|-0---0-0-0-0-0-0-|-2---2-2-2-2-2-2-|
|-1---1-1-1-1-1-1-|-2---2-2-2-2-2-2-| (x4)
|-2---2-2-2-2-2-2-|-2---2-2-2-2-2-2-|
|-2---2-2-2-2-2-2-|-0---0-0-0-0-0-0-|
|-0---0-0-0-0-0-0-|-----------------|

       (E)               (C#m)         (A)       (B)       (E)
|-----------------|-4---4-4-4-4-4-4-|---------|---------|---------|
|-0---0-0-0-0-0-0-|-5---5-5-5-5-5-5-|---------|---------|-9---9-9-|
|-1---1-1-1-1-1-1-|-6---6-6-6-6-6-6-|-6---6-6-|-8---8-8-|-9---9-9-|
|-2---2-2-2-2-2-2-|-6---6-6-6-6-6-6-|-7---7-7-|-9---9-9-|-9---9-9-|
|-2---2-2-2-2-2-2-|-4---4-4-4-4-4-4-|-7---7-7-|-9---9-9-|-7---7-7-|
|-0---0-0-0-0-0-0-|-----------------|-5---5-5-|-7---7-7-|---------|



                 (Verse 3)

"Well, the girls are frisky in old Frisco."  (riff)

"A pretty little chick wherever you go."  (riff)

           (E)            (A)      (E)             (A)
"Oh, and I walk, and they walk. I twist, and they twist."
  
       (E)               (A)          (E)           (A)
"And I shimmy, and they shimmy. And I fly, and they fly."

            (E)               (C#m)       (A)     (B)      (E)
"Well, we're out there havin' fun in the warm California sun."


                  (Coda)
"      Well, we're out there havin' fun         in the
|------------------|----------------|-4---4-4-4-4-4-4-|
|-9---9-9-9-9-9-9--|9---9-9-9-9-9-9-|-5---5-5-5-5-5-5-|
|-9---9-9-9-9-9-9--|9---9-9-9-9-9-9-|-6---6-6-6-6-6-6-|
|-9---9-9-9-9-9-9--|9---9-9-9-9-9-9-|-6---6-6-6-6-6-6-|
|-7---7-7-7-7-7-7--|7---7-7-7-7-7-7-|-4---4-4-4-4-4-4-|
|-----------------------------------------------------|

 
 warm California sun."
|---------|---------|-----------|
|---------|---------|-9---9-9-9-|
|-6---6-6-|-8---8-8-|-9---9-9-9-|
|-7---7-7-|-9---9-9-|-9---9-9-9-|
|-7---7-7-|-9---9-9-|-7---7-7-7-|
|-5---5-5-|-7---7-7-|-----------|
Suggest correction
Give kudos to tab author, rate the tab!
1 2 3 4 5
comments
print report bad tab
guest
You may want to rate the tab now too:
select rating
Wanna post a correction for this tab? Suggest correction