Oops, an error
Loading. Please wait.

Cant Get You Outta My Mind Bass Tab

version 1
version 1

Whole song

Interactive

16 views 1 this week
no commentswrite comment
1 2 3 4 5
3 more votes to show rating
add to favorites
launch autoscroll
font size
0
reset
guitar tuner
Autoscroll
slow
fast
+/-
esc
set tempo
stop
Help us to improve Ultimate-Guitar.com Take our survey!
×
Author
Difficulty
novice
------------------------------------------------------------------------------
                   Can’t Get You Outta My Mind - The Ramones
------------------------------------------------------------------------------

Tabbed by: ChrisT

From the Album: The Chrysalis Years (2002)

Tuning: Standard

Intro
G|----------------------------------------------------------------------|
D|o--------------------------------------------------------------------o|
A|o--3---3-3-3-3-3-3-1---1-1-1-1-1-1-----------------5-5-5-5-5-5-5-5---o|
E|-----------------------------------4---4-4-4-4-4-4--------------------|

G|----------------------------------------------------------------------------|
D|o--------------------------------------------------------------------------o|
A|o--10---10-10-10-10-10-10-8---8-8-8-8-8-8-6---6-6-6-6-6-6-6---5------------o|
E|------------------------------------------------------------------6---5-----|

Verse
G|-----------------------------------------------------------------------------|
D|o---------------------------------------------------------------------------o|
A|o--10---10-10-10-10-10-10-8---8-8-8-8-8-8-6---6-6-6-6-6-6-5-5-5-5-5-5-5-5---o|
E|-----------------------------------------------------------------------------|

Chorus
G|----------------------------------------------------------------------|
D|----------------------------------------------------------------------|
A|---6-6-6-6-6-6-6-6-5-5-5-5-5-5-5-5-6-6-6-6-6-6-6-6-5-5-5-5-5-5-5-5----|
E|----------------------------------------------------------------------|

G|-----------------------------------------------------------------------------|
D|-----------------------------------------------------------------------------|
A|---10---10-10-10-10-10-10-8---8-8-8-8-8-8-6---6-6-6-6-6-6-5-5-5-5-5-5-5-5----|
E|-----------------------------------------------------------------------------|

Verse                                                               
G|-----------------------------------------------------------------------------|
D|o---------------------------------------------------------------------------o|
A|o--10---10-10-10-10-10-10-8---8-8-8-8-8-8-6---6-6-6-6-6-6-5-5-5-5-5-5-5-5---o|
E|-----------------------------------------------------------------------------|

Chorus
G|----------------------------------------------------------------------|
D|----------------------------------------------------------------------|
A|---6-6-6-6-6-6-6-6-5-5-5-5-5-5-5-5-6-6-6-6-6-6-6-6-5-5-5-5-5-5-5-5----|
E|----------------------------------------------------------------------|

G|------------------------------------------------------|
D|------------------------------------------------------|
A|---10-10-10-10-10-10-10-10-10-10-10-10-10-10-10-10----|
E|------------------------------------------------------|

Bridge                                 Repeat x3
G|----------------------------------------------|--------------------------------------|
D|o--------------------------------------------o|--------------------------------------|
A|o--6-6-6-6-8-8-8-8-10-10-10-10-10-10-10-10---o|---8-8-8-8-8-8-8-8-8-8-8-8-8-8-8-8----|
E|----------------------------------------------|--------------------------------------|

                                       Repeat x3
G|----------------------------------------------|--------------------------------------|
D|o--------------------------------------------o|--------------------------------------|
A|o--6-6-6-6-8-8-8-8-10-10-10-10-10-10-10-10---o|---8-8-8-8-8-8-8-8-5-5-5-5-5-5-5-5----|
E|----------------------------------------------|--------------------------------------|

G|----------------------|----------------------------------------------|
D|----------------------|o--------------------------------------------o|
A|--10---10---10---10---|o--6-6-----8-8-----10-10-10-10-10-10-10-10---o|
E|----------------------|----------------------------------------------|

G|------------------------------------------------------|
D|------------------------------------------------------|
A|---6-6-----8-8-----5-5-5-5-5-5-5-5-5-5-5-5-5-5-5-5----|
E|------------------------------------------------------|

G|----------------------|----------------------------------------------|
D|----------------------|o--------------------------------------------o|
A|--10---10---10---10---|o--6-6-----8-8-----10-10-10-10-10-10-10-10---o|
E|----------------------|----------------------------------------------|

G|------------------------------------------------------|
D|------------------------------------------------------|
A|---6-6-----8-8-----5-5-5-5-5-5-5-5-5-5-5-5-5-5-5-5----|
E|------------------------------------------------------|

Verse
G|-----------------------------------------------------------------------------|
D|o---------------------------------------------------------------------------o|
A|o--10---10-10-10-10-10-10-8---8-8-8-8-8-8-6---6-6-6-6-6-6-5-5-5-5-5-5-5-5---o|
E|-----------------------------------------------------------------------------|

Chorus
G|----------------------------------------------------------------------|
D|----------------------------------------------------------------------|
A|---6-6-6-6-6-6-6-6-5-5-5-5-5-5-5-5-6-6-6-6-6-6-6-6-5-5-5-5-5-5-5-5----|
E|----------------------------------------------------------------------|

G|---------------------------------------------|-----------------------------------|
D|o-------------------------------------------o|-----------------------------------|
A|o--10---10-10-10-10-10-10-8---8-8-8-8-8-8---o|---6-6-6-6-6-6-6-5-5-5-5-5-5-5-5---|
E|---------------------------------------------|-----------------------------------|

G|---------------------------------------------|
D|---------------------------------------------|
A|---10---10-10-10-10-10-10-6-------5----------|
E|---------------------------------------------|

G|---------------------------------------------|-----------------------------------|
D|o-------------------------------------------o|-----------------------------------|
A|o--10---10-10-10-10-10-10-8---8-8-8-8-8-8---o|---6-6-6-6-6-6-6-5-5-5-5-5-5-5-5---|
E|---------------------------------------------|-----------------------------------|

G|---------------------------------------------|
D|---------------------------------------------|
A|---10---10-10-10-10-10-10-6-------5----------|
E|---------------------------------------------|

G|---------------------------------------------|-----------------------------------|
D|o-------------------------------------------o|-----------------------------------|
A|o--10---10-10-10-10-10-10-8---8-8-8-8-8-8---o|---6-6-6-6-6-6-6-5-5-5-5-5-5-5-5---|
E|---------------------------------------------|-----------------------------------|

G|---------------------------------------------------|
D|---------------------------------------------------|
A|---10---10-10-10-10-10-10-6-------5-------10-------|
E|---------------------------------------------------|


Suggest correction
Give kudos to tab author, rate the tab!
1 2 3 4 5
comments
print report bad tab
guest
You may want to rate the tab now too:
select rating
Wanna post a correction for this tab? Suggest correction