Oops, an error
Loading. Please wait.

Censorshit Bass Tab

version 2
version 2

Whole song

1 view 1 this week
no commentswrite comment
1 2 3 4 5
3 more votes to show rating
add to favorites
launch autoscroll
font size
0
reset
guitar tuner
Autoscroll
slow
fast
+/-
esc
set tempo
stop
Help us to improve Ultimate-Guitar.com Take our survey!
×
Author
Difficulty
novice
------------------------------------------------------------------------------
                     Censorshit - The Ramones
------------------------------------------------------------------------------

Tabbed by: ChrisT

From the Album: The Chrysalis Years (2002)

Tuning: Standard

Intro
G|--------------------------------------------------------------------------|
D|--------------------------------------------------------------------------|
A|--------------------------------------------------------------------------|
E|---3h5--5-5-5-5-5-5-3h5--5-5-5-5-5-5-3h5--5-5-5-5-5-5-3h5--5-5-5-5-5-5----|

Verse                                                              Repeat x4
G|--------------------------------------------------------------------------|
D|o------------------------------------------------------------------------o|
A|o-------------------------------------------5-5-5-5----------------------o|
E|---5-5-5-5-5-5-5-5-5-5-5-5-5-5-5-5--5-5-5-5---------5-5-5-5-5-5-5-5-------|

Chorus
G|-----------------------------------------------------------------------|
D|-----------------------------------------------------------------------|
A|-----------------------------------7-7-7-7-7-7-7-7---------------------|
E|---0-0-0-0-0-0-0-0-5-5-5-5-5-5-5-5-----------------5-5-5-5-5-5-5-5-----|

G|-----------------------------------------------------------------------|
D|-----------------------------------------------------------------------|
A|---5-5-5-5-5-5-5-5-----------------7-7-7-7-7-7-7-7---------------------|
E|-------------------5-5-5-5-5-5-5-5-----------------5-5-5-5-5-5-5-5-----|

G|-----------------------------------------------------------------------|
D|-----------------------------------------------------------------------|
A|---7-7-7-7-7-7-7-7-----------------7-7-7-7-7-7-7-7---------------------|
E|-------------------5-5-5-5-5-5-5-5-----------------5-5-5-5-5-5-5-5-----|

G|--------------------------------------------------------------------------------|
D|--------------------------------------------------------------------------------|
A|---5-5-5-5-5-5-5-5-----------------7-7-7-7-7-7-7-7------------------------------|
E|-------------------5-5-5-5-5-5-5-5-----------------5---3-5--3-5--5---3-5--3-5---|

Verse                                                              Repeat x4
G|--------------------------------------------------------------------------|
D|o------------------------------------------------------------------------o|
A|o-------------------------------------------5-5-5-5----------------------o|
E|---5-5-5-5-5-5-5-5-5-5-5-5-5-5-5-5--5-5-5-5---------5-5-5-5-5-5-5-5-------|

Chorus
G|-----------------------------------------------------------------------|
D|-----------------------------------------------------------------------|
A|-----------------------------------7-7-7-7-7-7-7-7---------------------|
E|---0-0-0-0-0-0-0-0-5-5-5-5-5-5-5-5-----------------5-5-5-5-5-5-5-5-----|

G|-----------------------------------------------------------------------|
D|-----------------------------------------------------------------------|
A|---5-5-5-5-5-5-5-5-----------------7-7-7-7-7-7-7-7---------------------|
E|-------------------5-5-5-5-5-5-5-5-----------------5-5-5-5-5-5-5-5-----|

G|-----------------------------------------------------------------------|
D|-----------------------------------------------------------------------|
A|---7-7-7-7-7-7-7-7-----------------7-7-7-7-7-7-7-7---------------------|
E|-------------------5-5-5-5-5-5-5-5-----------------5-5-5-5-5-5-5-5-----|

G|-----------------------------------------------------------------------|
D|-----------------------------------------------------------------------|
A|---5-5-5-5-5-5-5-5-----------------7-7-7-7-7-7-7-7---------------------|
E|-------------------5-5-5-5-5-5-5-5-----------------5-5-5-5-5-5-5-5-----|

Bridge
G|----------------------------------------------------------------------|
D|----------------------------------------------------------------------|
A|-------------------5-5-5-5-5-5-5-5-7-7-7-7-7-7-7-7--------------------|
E|---2-2-2-2-2-2-2-2---------------------------------5-5-5-5-5-5-5-5----|

G|----------------------------------------------------------------------|
D|----------------------------------------------------------------------|
A|-------------------5-5-5-5-5-5-5-5-5h7-7-7-7-7-7-7-7-7-7-7-7-7-7-7----|
E|---2-2-2-2-2-2-2-2----------------------------------------------------|

G|--------------------------------------|
D|--------------------------------------|
A|---7-7-7-7-7-7-7-7-7-7-7-7-7-7-7-7----|
E|--------------------------------------|

Verse                                                              Repeat x4
G|--------------------------------------------------------------------------|
D|o------------------------------------------------------------------------o|
A|o-------------------------------------------5-5-5-5----------------------o|
E|---5-5-5-5-5-5-5-5-5-5-5-5-5-5-5-5--5-5-5-5---------5-5-5-5-5-5-5-5-------|

Chorus
G|-----------------------------------------------------------------------|
D|-----------------------------------------------------------------------|
A|-----------------------------------7-7-7-7-7-7-7-7---------------------|
E|---0-0-0-0-0-0-0-0-5-5-5-5-5-5-5-5-----------------5-5-5-5-5-5-5-5-----|

G|-----------------------------------------------------------------------|
D|-----------------------------------------------------------------------|
A|---5-5-5-5-5-5-5-5-----------------7-7-7-7-7-7-7-7---------------------|
E|-------------------5-5-5-5-5-5-5-5-----------------5-5-5-5-5-5-5-5-----|

G|-----------------------------------------------------------------------|
D|-----------------------------------------------------------------------|
A|---7-7-7-7-7-7-7-7-----------------7-7-7-7-7-7-7-7---------------------|
E|-------------------5-5-5-5-5-5-5-5-----------------5-5-5-5-5-5-5-5-----|

G|-----------------------------------------------------------------------|
D|-----------------------------------------------------------------------|
A|---5-5-5-5-5-5-5-5-----------------7-7-7-7-7-7-7-7---------------------|
E|-------------------5-5-5-5-5-5-5-5-----------------5-5-5-5-5-5-5-5-----|

Outro
G|-----------------------------------------------------------------------|
D|o---------------------------------------------------------------------o|
A|o------------------8-8-8-8-8-8-8-8-5-5-5-5-5-5-5-5--------------------o|
E|---8-8-8-8-8-8-8-8---------------------------------5-5-5-5-5-5-5-5-----|

G|-----------------------------------------------------------------------|
D|-----------------------------------------------------------------------|
A|-------------------8-8-8-8-8-8-8-8-5~----------------------------------|
E|---8-8-8-8-8-8-8-8-----------------------------------------------------|
Suggest correction
Give kudos to tab author, rate the tab!
1 2 3 4 5
comments
print report bad tab
guest
You may want to rate the tab now too:
select rating
Wanna post a correction for this tab? Suggest correction