Oops, an error
Loading. Please wait.

Chinese Rock Tab

version 1
version 1

Whole song

Interactive

4,541 views 1 this week
no commentswrite comment
1 2 3 4 5
3 more votes to show rating
add to favorites
launch autoscroll
font size
0
reset
how to read this tab
guitar tuner
Autoscroll
slow
fast
+/-
esc
set tempo
stop
Help us to improve Ultimate-Guitar.com Take our survey!
×
Author
Difficulty
novice
----------------------------------------------------------------------------
                             CHINESE ROCKS - The Ramones
----------------------------------------------------------------------------
Tabbed by: Geoff
Email: bergg23@hotmail.com
This is a great, easy song so I’d thought I’d give tabbing it a try. This is
my first tab so if you have any comments or suggestions please leave a comment
or email me.

        INTRO 

e|-----------------------------------------------|
B|-----------------------------------------------|
G|--------------------------3/555-555--3/555-555-| 
D|-3/555-555--3/555-555-----3/555-555--3/555-555-|
A|-3/555-555--3/555-555-----1/333-333--1/333-333-|
E|-1/333-333--1/333-333--------------------------|

        VERSE 

e|-------------------|
B|-------------------|
G|-------------------|
D|-33333333----------|
A|-33333333-55555555-|
E|-11111111-33333333-|

        CHORUS 

e|-------------|
B|-------------|
G|-------------|
D|-77----------|
A|-55-77-99-55-|
E|----55-77-33-|

        INTERLUDE

e|---------------------------------|
B|---------------------------------|
G|---------------------------------|
D|-3-5-7-777777--3-5-7-777777-7----|
A|-3-5-7-777777--3-5-7-777777-5-7-5|
E|-1-3-5-555555--1-3-5-555555---5-3|

        END

e|-----------------|
B|-----------------|
G|-----------------|
D|-3-5--3-5--3-5-7-|
A|-3-5--3-5--3-5-7-|
E|-1-3--1-3--1-3-5-|

Intro X2
Verse X4
Chorus x4
Intro x2
Verse X4
Chorus x4
Interlude
Intro X2
Verse x4
Chorus x8
end


That’s it. Sounds right to me. If you have any comments/
suggestions please leave a comment or email me.


| /  slide up
| \  slide down
| h  hammer-on
| p  pull-off
| ~  vibrato
Suggest correction
Give kudos to tab author, rate the tab!
1 2 3 4 5
comments
print report bad tab
guest
You may want to rate the tab now too:
select rating
Wanna post a correction for this tab? Suggest correction