Oops, an error
Loading. Please wait.

Cretin Hop Bass Tab

version 3
version 3

Whole song

Interactive

229 views 3 this week
no commentswrite comment
1 2 3 4 5
3 more votes to show rating
add to favorites
launch autoscroll
font size
0
reset
guitar tuner
Autoscroll
slow
fast
+/-
esc
set tempo
stop
Help us to improve Ultimate-Guitar.com Take our survey!
×
Difficulty
intermediate
intro
(wait 4 bars before playing)
G----|-----------------|----------------|-----------------|-----------------|
D----|-----------------|----------------|-----------------|-----------------|
A5-5-|-7-7-----7-7-7-7-|-7-7-7-7--------|-7-7-----7-7-7-7-|-7-7-7-7-5-5-5-5-|
E----|-----5-5---------|--------5-5-5-5-|-----5-5---------|-----------------|

verse
"there's no stopping the cretins from hopping..."
G-----------------|-----------------|-----------------|-----------------|
D-----------------|-----------------|-----------------|-----------------|
A-----------------|-----------------|-7-7-7-7-7-7-7-7-|-7-7-7-7-7-7-7-7-|
E-5-5-5-5-5-5-5-5-|-5-5-5-5-5-5-5-5-|-----------------|-----------------|

G-----------------|-----------------|-----------------|-----------------|
D-----------------|-----------------|-----------------|-----------------|
A-----------------|-----------------|-7-7-7-7-7-7-7-7-|-7-7-7-7-7-7-7-7-|
E-5-5-5-5-5-5-5-5-|-5-5-5-5-5-5-5-5-|-----------------|-----------------|

chorus
"cretin, cretin"
G-----------------|-----------------|-----------------|-----------------|
D-----------------|-----------------|-----------------|-----------------|
A-----------------|-7-7-7-7-7-7-7-7-|-----------------|-7-7-7-7-7-7-7-7-|
E-7-7-7-7-7-7-7-7-|-----------------|-7-7-7-7-7-7-7-7-|-----------------|

verse
"I'm gonna go for a whirl with my cretin girl"
G-----------------|-----------------|-----------------|-----------------|
D-----------------|-----------------|-----------------|-----------------|
A-----------------|-----------------|-7-7-7-7-7-7-7-7-|-7-7-7-7-7-7-7-7-|
E-5-5-5-5-5-5-5-5-|-5-5-5-5-5-5-5-5-|-----------------|-----------------|

G-----------------|-----------------|-----------------|-----------------|
D-----------------|-----------------|-----------------|-----------------|
A-----------------|-----------------|-7-7-7-7-7-7-7-7-|-7-7-7-7-7-7-7-7-|
E-5-5-5-5-5-5-5-5-|-5-5-5-5-5-5-5-5-|-----------------|-----------------|

chorus
"cretin, cretin"
G-----------------|-----------------|-----------------|-----------------|
D-----------------|-----------------|-----------------|-----------------|
A-----------------|-7-7-7-7-7-7-7-7-|-----------------|-7-7-7-7-7-7-7-7-|
E-7-7-7-7-7-7-7-7-|-----------------|-7-7-7-7-7-7-7-7-|-----------------|

intro
G-----------------|-----------------|-----------------|-----------------|
D-----------------|-----------------|-----------------|-----------------|
A-7-7-----7-7-7-7-|-7-7-7-7-5-5-5-5-|-7-7-----7-7-7-7-|-7-7-7-7-5-5-5-5-|
E-----5-5---------|-----------------|-----5-5---------|-----------------|

"1,2,3,4 cretins wanna hop somemore"
G-----R-----|
D-----e-----|
A-----s-----|
E-----t-----|

G-----------------|-----------------|
D-----------------|-----------------|
A-7-7-----7-7-7-7-|-7-7-7-7-5-5-5-5-|
E-----5-5---------|-----------------|

"4,5,6,7 all the cretins go to heaven"
G-----R-----|
D-----e-----|
A-----s-----|
E-----t-----|

G-----------------|-----------------|-----------------|-----------------|
D-----------------|-----------------|-----------------|-----------------|
A-7-7-----7-7-7-7-|-7-7-7-7-5-5-5-5-|-7-7-----7-7-7-7-|-7-7-7-7-5-5-5-5-|
E-----5-5---------|-----------------|-----5-5---------|-----------------|

verse
"there's no stopping the cretins from hopping"
G-----------------|-----------------|-----------------|-----------------|
D-----------------|-----------------|-----------------|-----------------|
A-----------------|-----------------|-7-7-7-7-7-7-7-7-|-7-7-7-7-7-7-7-7-|
E-5-5-5-5-5-5-5-5-|-5-5-5-5-5-5-5-5-|-----------------|-----------------|

G-----------------|-----------------|-----------------|-----------------|
D-----------------|-----------------|-----------------|-----------------|
A-----------------|-----------------|-7-7-7-7-7-7-7-7-|-7-7-7-7-7-7-7-7-|
E-5-5-5-5-5-5-5-5-|-5-5-5-5-5-5-5-5-|-----------------|-----------------|

chorus
"cretin, cretin"
G-----------------|-----------------|-----------------|-----------------|
D-----------------|-----------------|-----------------|-----------------|
A-----------------|-7-7-7-7-7-7-7-7-|-----------------|-7-7-7-7-7-7-7-7-|
E-7-7-7-7-7-7-7-7-|-----------------|-7-7-7-7-7-7-7-7-|-----------------|

verse
"I'm gonna go for a whirl with my cretin girl"
G-----------------|-----------------|-----------------|-----------------|
D-----------------|-----------------|-----------------|-----------------|
A-----------------|-----------------|-7-7-7-7-7-7-7-7-|-7-7-7-7-7-7-7-7-|
E-5-5-5-5-5-5-5-5-|-5-5-5-5-5-5-5-5-|-----------------|-----------------|

G-----------------|-----------------|-----------------|-----------------|
D-----------------|-----------------|-----------------|-----------------|
A-----------------|-----------------|-7-7-7-7-7-7-7-7-|-7-7-7-7-7-7-7-7-|
E-5-5-5-5-5-5-5-5-|-5-5-5-5-5-5-5-5-|-----------------|-----------------|

chorus
"cretin, cretin"
G-----------------|-----------------|-----------------|-----------------|
D-----------------|-----------------|-----------------|-----------------|
A-----------------|-7-7-7-7-7-7-7-7-|-----------------|-7-7-7-7-7-7-7-7-|
E-7-7-7-7-7-7-7-7-|-----------------|-7-7-7-7-7-7-7-7-|-----------------|

intro
G-----------------|-----------------|-----------------|-----------------|
D-----------------|-----------------|-----------------|-----------------|
A-7-7-----7-7-7-7-|-7-7-7-7-5-5-5-5-|-7-7-----7-7-7-7-|-7-7-7-7-5-5-5-5-|
E-----5-5---------|-----------------|-----5-5---------|-----------------|

"1,2,3,4 cretins wanna hop somemore"
G-----R-----|
D-----e-----|
A-----s-----|
E-----t-----|

G-----------------|-----------------|
D-----------------|-----------------|
A-7-7-----7-7-7-7-|-7-7-7-7-5-5-5-5-|
E-----5-5---------|-----------------|

"4,5,6,7 all the cretins go to heaven"
G-----R-----|
D-----e-----|
A-----s-----|
E-----t-----|

Outro
G-----------------|-----------------|-----------------|-----------------|
D-----------------|-----------------|-----------------|-----------------|
A-7-7-----7-7-7-7-|-7-7-7-7-5-5-5-5-|-7-7-----7-7-7-7-|-7-7-7-7-5-5-5-5-|
E-----5-5---------|-----------------|-----5-5---------|-----------------|

G-----------------|-----------------|-----------------|-----------------|
D-----------------|-----------------|-----------------|-----------------|
A-7-7-----7-7-7-7-|-7-7-7-7-5-5-5-5-|-7-7-----7-7-7-7-|-7-7-7-7-5-5-5-5-|
E-----5-5---------|-----------------|-----5-5---------|-----------------|
Suggest correction
Give kudos to tab author, rate the tab!
1 2 3 4 5
comments
print report bad tab
guest
You may want to rate the tab now too:
select rating
Wanna post a correction for this tab? Suggest correction