Oops, an error
Loading. Please wait.

Danger Zone Bass Tab

1,665 views 6 this week
no commentswrite comment
1 2 3 4 5
please rate
add to favorites
launch autoscroll
font size
0
reset
guitar tuner
Autoscroll
slow
fast
+/-
esc
set tempo
stop
Help us to improve Ultimate-Guitar.com Take our survey!
×
Band :The Ramones
Song: Danger Zone
Bassist: Dee Dee Ramone
Song Interpretaion by: Marty Stranger

This is my firts tab here on this side, so i hope you like my version of it.
Thats how i always play it and i think its a pretty easy and nice sounding bass track.
You just have to repeat everything throughout the song.
Have Fun!

Intro:
G:----------------------------------------|
D:----------------------------------------|
A:---------7-7-7-7-5-----------7-7-7-7-5--|
E:-7-7-7-7------------5--7-7-7-7----------|


Verse:
G:----------------------------------|
D:----------------------------------|
A:-7-7-7-7---------3-3-3-3-5-5-5-5--|
E:---------7-7-7-7------------------|



Bridge:
G:----------------------------------|
D:----------------------------------|
A:----------------------------------|
E:-7-7-7-7-7-7-7--------------------|



Verse:
G:----------------------------------|
D:----------------------------------|
A:-7-7-7-7---------3-3-3-3-5-5-5-5--|
E:---------7-7-7-7------------------|



Chorus:
G:----------------------------------|
D:----------------------------------|
A:---------7-7-7-5------------------|
E:-7-7-7-7--------------------------|

(During the short guitarsolo just play the verse)


Well thats it, just repeat everything over and over throughout the song.
Have fun!

Marty Stranger
Suggest correction
Give kudos to tab author, rate the tab!
1 2 3 4 5
comments
print report bad tab
guest
You may want to rate the tab now too:
select rating
Wanna post a correction for this tab? Suggest correction