Oops, an error
Loading. Please wait.

Danny Says Bass Tab

1,385 views 1 this week
no commentswrite comment
1 2 3 4 5
please rate
add to favorites
launch autoscroll
font size
0
reset
guitar tuner
Autoscroll
slow
fast
+/-
esc
set tempo
stop
Help us to improve Ultimate-Guitar.com Take our survey!
×
Author
Difficulty
novice
ramones - danny says tabs is played in Standard Tuning E,A,D,G,

       intro is
  guitar and drums only

 verse
|------------------|------------------|
|------------------|------------------|
|------------------|-0-0--2-2---------|
|--4--4-4--4-------|------------------|


 p-verse


|------------------|
|-------4-2--------|
|-5---5------------|
|---5--------------|


Pre chorus:
         dont know the real count

E|-33333333333333333333333--


 chorus           play  2 more times

|--------------------------------------------------------------------------|
|--------------------------------------------------------------------------|
|--------------------------------------------------------------------------|
|--5--5---7--7---3--3-3--3------5--5--7--7--999999999----5555555---7777777-|


|--------------------------------------------------------------------------|
|--------------------------------------------------------------------------|
|--------------------------------------------------------------------------|
|----5555555555555---7777777777777----3333333333333-----5555555555---------|

bridge
|-----------------------|
|-----------------------|
|-----------------------|
|-33---55--77--99----3--|
Suggest correction
Give kudos to tab author, rate the tab!
1 2 3 4 5
comments
print report bad tab
guest
You may want to rate the tab now too:
select rating
Wanna post a correction for this tab? Suggest correction