Oops, an error
Loading. Please wait.

Dont Bust My Chops Bass Tab

version 1
version 1

Whole song

Interactive

7 views 3 this week
no commentswrite comment
1 2 3 4 5
3 more votes to show rating
add to favorites
launch autoscroll
font size
0
reset
guitar tuner
Autoscroll
slow
fast
+/-
esc
set tempo
stop
Help us to improve Ultimate-Guitar.com Take our survey!
×
Author
Difficulty
novice
-----------------------------------------------------------------------------
                     Don’t Bust My Chops - The Ramones
------------------------------------------------------------------------------

Tabbed by: ChrisT

From the Album: The Chrysalis Years (2002)

Tuning: Standard

Intro                         Repeat x3
G|-------------------------------------|-------------------------------------|
D|o-----------------------------------o|-------------------------------------|
A|o------------------3-3-3-5---5-5-5--o|---3-3-3-3-3-3-3-3-5-5-5-5-5-5-5-5---|
E|---3-3-3-3-6-6-6-6-------------------|-------------------------------------|

Verse                         Repeat x3
G|-------------------------------------|-------------------------------------|
D|o-----------------------------------o|-------------------------------------|
A|o------------------3-3-3-5---5-5-5--o|---3-3-3-3-3-3-3-3-5-5-5-5-5-5-5-5---|
E|---3-3-3-3-6-6-6-6-------------------|-------------------------------------|

                              Repeat x3
G|-------------------------------------|-------------------------------------|
D|o-----------------------------------o|-------------------------------------|
A|o------------------3-3-3-5---5-5-5--o|---3-3-3-3-3-3-3-3-5-5-5-5-5-5-5-5---|
E|---3-3-3-3-6-6-6-6-------------------|-------------------------------------|

Chorus
G|----------------------------------------------------------------------|
D|o--------------------------------------------------------------------o|
A|o--------------------------------------------------3-1---------------o|
E|---3-3-3-3-3-3-3-3-3-3-3-3-3-3-3-3-3-3-3-3-3-3-3-3-----1-3---3-3-3----|

             Repeat x4
G|--------------------|
D|o------------------o|
A|o--3h5--5-5--3-3---o|
E|--------------------|

Verse                         Repeat x3
G|-------------------------------------|-------------------------------------|
D|o-----------------------------------o|-------------------------------------|
A|o------------------3-3-3-5---5-5-5--o|---3-3-3-3-3-3-3-3-5-5-5-5-5-5-5-5---|
E|---3-3-3-3-6-6-6-6-------------------|-------------------------------------|

                              Repeat x3
G|-------------------------------------|-------------------------------------|
D|o-----------------------------------o|-------------------------------------|
A|o------------------3-3-3-5---5-5-5--o|---3-3-3-3-3-3-3-3-5-5-5-5-5-5-5-5---|
E|---3-3-3-3-6-6-6-6-------------------|-------------------------------------|

Chorus
G|----------------------------------------------------------------------|
D|o--------------------------------------------------------------------o|
A|o--------------------------------------------------3-1---------------o|
E|---3-3-3-3-3-3-3-3-3-3-3-3-3-3-3-3-3-3-3-3-3-3-3-3-----1-3---3-3-3----|

             Repeat x4
G|--------------------|
D|o------------------o|
A|o--3h5--5-5--3-3---o|
E|--------------------|

Guitar Solo                   Repeat x3
G|-------------------------------------|-------------------------------------|
D|o-----------------------------------o|-------------------------------------|
A|o------------------3-3-3-5---5-5-5--o|---3-3-3-3-3-3-3-3-5-5-5-5-5-5-5-5---|
E|---3-3-3-3-6-6-6-6-------------------|-------------------------------------|

Chorus                                                         Repeat x4
G|----------------------------------------------------------------------|
D|o--------------------------------------------------------------------o|
A|o--------------------------------------------------3-1---------------o|
E|---3-3-3-3-3-3-3-3-3-3-3-3-3-3-3-3-3-3-3-3-3-3-3-3-----1-3---3-3-3----|

             Repeat x4
G|--------------------|-------|
D|o------------------o|-------|
A|o--3h5--5-5--3-3---o|-------|
E|--------------------|---3---|

==================
h - Hammer on
==================
Suggest correction
Give kudos to tab author, rate the tab!
1 2 3 4 5
comments
print report bad tab
guest
You may want to rate the tab now too:
select rating
Wanna post a correction for this tab? Suggest correction