Oops, an error
Loading. Please wait.

Go Mental Tab

1,606 views 1 this week
no commentswrite comment
1 2 3 4 5
please rate
add to favorites
launch autoscroll
font size
0
reset
how to read this tab
guitar tuner
Tab Pro tools
  • play this tab
  • loop segment
  • change instrument
  • show fretboard
  • metronome
×
Best way to learn
"Go Mental"
Autoscroll
slow
fast
+/-
esc
set tempo
stop
Contributor
Go Mental by the Ramones
(standard tuning)

/    slide up
\    slide down
b    bend 
pb   prebend
r    release bend
h    hammer on
p    pull off

|------------------------------------------------------------------------|
|------------------------------------------------------------------------|
|-7-7-7-7--7-7-7-7--5-5-5-5--5-5-5-5-------------------------------------|
|-5-5-5-5--5-5-5-5--3-3-3-3--3-3-3-3--3-3-3-3--3-3-3-3--5-5-5-5--5-5-5-5-|
|-------------------------------------1-1-1-1--1-1-1-1--3-3-3-3--3-3-3-3-|
|------------------------------------------------------------------------|
4 times

|-------------------------------|-------------------------------------|
|-------------------------------|-------------------------------------|
|-----------------5/7--7-7--7-7-|-9-9-9-9--9-9-9-9--10101010-10101010-|
|-5/7--7-7--7-7---3/5--5-5--5-5-|-7-7-7-7--7-7-7-7--8-8-8-8--8-8-8-8--|
|-3/5--5-5--5-5-----------------|-------------------------------------|
|-------------------------------|-------------------------------------|
6 times                          2 times

|-------------------------------|-------------------------------------|
|-------------------------------|-------------------------------------|
|-----------------5/7--7-7--7-7-|-9-9-9-9--9-9-9-9--10101010-10101010-|
|-5/7--7-7--7-7---3/5--5-5--5-5-|-7-7-7-7--7-7-7-7--8-8-8-8--8-8-8-8--|
|-3/5--5-5--5-5-----------------|-------------------------------------|
|-------------------------------|-------------------------------------|
6 times                          2 times

|------------------------------------------------------------------------|
|------------------------------------------------------------------------|
|------------------------------------------------------------------------|
|-------------------------------------3-3-3-3--3-3-3-3--5-5-5-5--5-5-5-5-|
|-5-5-5-5--5-5-5-5--3-3-3-3--3-3-3-3--1-1-1-1--1-1-1-1--3-3-3-3--3-3-3-3-|
|-3-3-3-3--3-3-3-3--1-1-1-1--1-1-1-1-------------------------------------|


|---------------------------------------------------------------|
|---------------------------------------------------------------|
|---------------------------------------------------------------|
|-5b---------3--5--3--5--3--5b-(7)-r----3--5--3--5--3--5b-(7)-r-|
|---------------------------------------------------------------|
|---------------------------------------------------------------|


|---------------------------------------------------------------|
|---------------------------------------------------------------|
|-5b---------3--5--3--5--3--5b-(7)-r----3--5--3--5--3--5b-(7)-r-|
|---------------------------------------------------------------|
|---------------------------------------------------------------|
|---------------------------------------------------------------|


|----------------------------5\--------5------------12b-12b-12b-12b-12b--|
|-5h6p5h6p5h6p5h6p5h6p5------6\--------6--WHAMMY!------------------------|
|------------------------------------------------------------------------|
|------------------------------------------------------------------------|
|------------------------------------------------------------------------|
|------------------------------------------------------------------------|
comments
We did not receive enough feedback on this tab! Please rate:
print report bad tab
1 2 3 4 5
I want to post or [tab]
guest
You may want to rate the tab now too:
select rating
Please do not post tabs as comments. Select "correction" instead!