Oops, an error
Loading. Please wait.

Have A Nice Day Bass Tab

25 views 1 this week
no commentswrite comment
1 2 3 4 5
3 more votes to show rating
add to favorites
launch autoscroll
font size
0
reset
guitar tuner
Autoscroll
slow
fast
+/-
esc
set tempo
stop
Help us to improve Ultimate-Guitar.com Take our survey!
×
Author
Difficulty
novice
------------------------------------------------------------------------------
                     Have A Nice Day - The Ramones
------------------------------------------------------------------------------

Tabbed by: ChrisT

From the Album: The Chrysalis Years (2002)

Tuning: Standard

Intro (0:03)
G|-------------------------------|
D|o-----------------------------o|
A|o-----------------------------o|
E|---3--3--3-3-3--3--3-3--3-3----|

Verse
G|---------------------------------------------------|
D|o-------------------------------------------------o|
A|o-------------------------------3-3---------------o|
E|---6--6--6-6-6--3--3-3-3-3--1-1-----3--3-3--3-3----|

Chorus
G|--------------------------------------------|
D|o------------------------------------------o|
A|o--------1--3--3-3-3-3-3--5--3-3--5--3-3---o|
E|---1--3-------------------------------------|

Verse
G|---------------------------------------------------|
D|o-------------------------------------------------o|
A|o-------------------------------3-3---------------o|
E|---6--6--6-6-6--3--3-3-3-3--1-1-----3--3-3--3-3----|

Chorus
G|--------------------------------------------|
D|o------------------------------------------o|
A|o--------1--3--3-3-3-3-3--5--3-3--5--3-3---o|
E|---1--3-------------------------------------|

Bridge                                            Repeat x4
G|---------------------------------------------------------|
D|o-------------------------------------------------------o|
A|o--3--3-3--3-3--6--6-6--6-6--5--5-5--5-5--4--4-4--4-4---o|
E|---------------------------------------------------------|

G|---------------------------------------------------------|
D|o--------------------------------------------------------|
A|o---------------6--6-6--6-6-/8--8-8--8-8--8--8-8--8-8----|
E|---3--3-3--3-3-------------------------------------------|

G|---------------------------------------------------------|
D|--------------------------------------------------------o|
A|----------------6--6-6--6-6--5--5-5--5-5--5--5-5--5-5---o|
E|---3--3-3--3-3-------------------------------------------|

Verse
G|---------------------------------------------------|
D|o-------------------------------------------------o|
A|o-------------------------------3-3---------------o|
E|---6--6--6-6-6--3--3-3-3-3--1-1-----3--3-3--3-3----|

Chorus                               Repeat x4
G|--------------------------------------------|
D|o------------------------------------------o|
A|o--------1--3--3-3-3-3-3--5--3-3--5--3-3---o|
E|---1--3-------------------------------------|

G|--------------------------------------------|-------|
D|o------------------------------------------o|-------|
A|o--------1--3--3-3-3-3-3--5--3-3--5--3-3---o|-------|
E|---1--3-------------------------------------|---3---|
Suggest correction
Give kudos to tab author, rate the tab!
1 2 3 4 5
comments
print report bad tab
guest
You may want to rate the tab now too:
select rating
Wanna post a correction for this tab? Suggest correction