Oops, an error
Loading. Please wait.

Have You Ever Seen The Rain Tab

version 3
version 3

Whole song

  • This version includes all correct chords, rhythms and different guitar parts.

Interactive

28 views 1 this week
no commentswrite comment
1 2 3 4 5
3 more votes to show rating
add to favorites
launch autoscroll
font size
0
reset
how to read this tab
guitar tuner
Autoscroll
slow
fast
+/-
esc
set tempo
stop
Help us to improve Ultimate-Guitar.com Take our survey!
×
Author
Difficulty
novice
About this tab version
This version includes all correct chords, rhythms and different guitar parts. Was this info helpful? Yes No
[Intro]

(Guitars 1 & 2)

  D                E                A                A
e|5---5-5-5-5-5-5-|7---7-7-7-7-7-7-|5---5-5-5-5-5-5-|5-5-5-5-5-5-5-5-|
B|5---5-5-5-5-5-5-|7---7-7-7-7-7-7-|5---5-5-5-5-5-5-|5-5-5-5-5-5-5-5-|
G|7---7-7-7-7-7-7-|9---9-9-9-9-9-9-|6---6-6-6-6-6-6-|6-6-6-6-6-6-6-6-|
D|7---7-7-7-7-7-7-|9---9-9-9-9-9-9-|7---7-7-7-7-7-7-|7-7-7-7-7-7-7-7-|
A|5---5-5-5-5-5-5-|7---7-7-7-7-7-7-|7---7-7-7-7-7-7-|7-7-7-7-7-7-7-7-|
E|----------------|----------------|5---5-5-5-5-5-5-|5-5-5-5-5-5-5-5-|
  1 & 2 & 3 & 4 &  1 & 2 & 3 & 4 &  1 & 2 & 3 & 4 &  1 & 2 & 3 & 4 &

[Verse]

(Guitars 1 & 2)

  A                A                          E                E
e|5---5-5-5-5-5-5-|5-5-5-5-5-5-5-5-|        e|7---7-7-7-7-7-7-|7-7-7-7-7-7-7-7-|
B|5---5-5-5-5-5-5-|5-5-5-5-5-5-5-5-|        B|7---7-7-7-7-7-7-|7-7-7-7-7-7-7-7-|
G|6---6-6-6-6-6-6-|6-6-6-6-6-6-6-6-|        G|9---9-9-9-9-9-9-|9-9-9-9-9-9-9-9-|
D|7---7-7-7-7-7-7-|7-7-7-7-7-7-7-7-|  (x2)  D|9---9-9-9-9-9-9-|9-9-9-9-9-9-9-9-|
A|7---7-7-7-7-7-7-|7-7-7-7-7-7-7-7-|        A|7---7-7-7-7-7-7-|7-7-7-7-7-7-7-7-|
E|5---5-5-5-5-5-5-|5-5-5-5-5-5-5-5-|        E|----------------|----------------|
  1 & 2 & 3 & 4 &  1 & 2 & 3 & 4 &            1 & 2 & 3 & 4 &  1 & 2 & 3 & 4 & 

  A                A
e|5---5-5-5-5-5-5-|5-5-5-5-5-5-5-5-|
B|5---5-5-5-5-5-5-|5-5-5-5-5-5-5-5-|
G|6---6-6-6-6-6-6-|6-6-6-6-6-6-6-6-|
D|7---7-7-7-7-7-7-|7-7-7-7-7-7-7-7-|
A|7---7-7-7-7-7-7-|7-7-7-7-7-7-7-7-|
E|5---5-5-5-5-5-5-|5-5-5-5-5-5-5-5-|
  1 & 2 & 3 & 4 &  1 & 2 & 3 & 4 &

  A                A                          E                E
e|5---5-5-5-5-5-5-|5-5-5-5-5-5-5-5-|        e|7---7-7-7-7-7-7-|7-7-7-7-7-7-7-7-|
B|5---5-5-5-5-5-5-|5-5-5-5-5-5-5-5-|        B|7---7-7-7-7-7-7-|7-7-7-7-7-7-7-7-|
G|6---6-6-6-6-6-6-|6-6-6-6-6-6-6-6-|        G|9---9-9-9-9-9-9-|9-9-9-9-9-9-9-9-|
D|7---7-7-7-7-7-7-|7-7-7-7-7-7-7-7-|  (x2)  D|9---9-9-9-9-9-9-|9-9-9-9-9-9-9-9-|
A|7---7-7-7-7-7-7-|7-7-7-7-7-7-7-7-|        A|7---7-7-7-7-7-7-|7-7-7-7-7-7-7-7-|
E|5---5-5-5-5-5-5-|5-5-5-5-5-5-5-5-|        E|----------------|----------------|
  1 & 2 & 3 & 4 &  1 & 2 & 3 & 4 &            1 & 2 & 3 & 4 &  1 & 2 & 3 & 4 & 

  A                A
e|5---5-5-5-5-5-5-|5-5-5-5-5-5-5-5-|
B|5---5-5-5-5-5-5-|5-5-5-5-5-5-5-5-|
G|6---6-6-6-6-6-6-|6-6-6-6-6-6-6-6-|
D|7---7-7-7-7-7-7-|7-7-7-7-7-7-7-7-|
A|7---7-7-7-7-7-7-|7-7-7-7-7-7-7-7-|
E|5---5-5-5-5-5-5-|5-5-5-5-5-5-5-5-|
  1 & 2 & 3 & 4 &  1 & 2 & 3 & 4 &

[Chorus]

(Guitar 1)

  D                E                A       G#       F#      E
e|5---5-5-5-5-5-5-|7---7-7-7-7-7-7-|----------------|----------------|
B|5---5-5-5-5-5-5-|7---7-7-7-7-7-7-|----------------|----------------|
G|7---7-7-7-7-7-7-|9---9-9-9-9-9-9-|9---9-9-8---8-8-|11--11119---9-9-|
D|7---7-7-7-7-7-7-|9---9-9-9-9-9-9-|7---7-7-6---6-6-|11--11119---9-9-|  (x2)
A|5---5-5-5-5-5-5-|7---7-7-7-7-7-7-|----------------|9---9-9-7---7-7-|
E|----------------|----------------|----------------|----------------|
  1 & 2 & 3 & 4 &  1 & 2 & 3 & 4 &  1 & 2 & 3 & 4 &  1 & 2 & 3 & 4 &

(Guitar 2)

  D                E                A       G#       F#      E
e|5---5-5-5-5-5-5-|7---7-7-7-7-7-7-|5---5-5-4---4-4-|2---2-2-0---0-0-|
B|5---5-5-5-5-5-5-|7---7-7-7-7-7-7-|5---5-5-4---4-4-|2---2-2-0---0-0-|
G|7---7-7-7-7-7-7-|9---9-9-9-9-9-9-|6---6-6-5---5-5-|3---3-3-1---1-1-|
D|7---7-7-7-7-7-7-|9---9-9-9-9-9-9-|7---7-7-6---6-6-|4---4-4-2---2-2-|  (x2)
A|5---5-5-5-5-5-5-|7---7-7-7-7-7-7-|7---7-7-6---6-6-|4---4-4-2---2-2-|
E|----------------|----------------|5---5-5-4---4-4-|2---2-2-0---0-0-|
  1 & 2 & 3 & 4 &  1 & 2 & 3 & 4 &  1 & 2 & 3 & 4 &  1 & 2 & 3 & 4 &

(Guitars 1 & 2)

  D                E                A                A
e|5---5-5-5-5-5-5-|7---7-7-7-7-7-7-|5---5-5-5-5-5-5-|5-5-5-5-5-5-5-5-|
B|5---5-5-5-5-5-5-|7---7-7-7-7-7-7-|5---5-5-5-5-5-5-|5-5-5-5-5-5-5-5-|
G|7---7-7-7-7-7-7-|9---9-9-9-9-9-9-|6---6-6-6-6-6-6-|6-6-6-6-6-6-6-6-|
D|7---7-7-7-7-7-7-|9---9-9-9-9-9-9-|7---7-7-7-7-7-7-|7-7-7-7-7-7-7-7-|
A|5---5-5-5-5-5-5-|7---7-7-7-7-7-7-|7---7-7-7-7-7-7-|7-7-7-7-7-7-7-7-|
E|----------------|----------------|5---5-5-5-5-5-5-|5-5-5-5-5-5-5-5-|
  1 & 2 & 3 & 4 &  1 & 2 & 3 & 4 &  1 & 2 & 3 & 4 &  1 & 2 & 3 & 4 &

[Verse]

(Guitars 1 & 2)

  A                A                          E                E
e|5---5-5-5-5-5-5-|5-5-5-5-5-5-5-5-|        e|7---7-7-7-7-7-7-|7-7-7-7-7-7-7-7-|
B|5---5-5-5-5-5-5-|5-5-5-5-5-5-5-5-|        B|7---7-7-7-7-7-7-|7-7-7-7-7-7-7-7-|
G|6---6-6-6-6-6-6-|6-6-6-6-6-6-6-6-|        G|9---9-9-9-9-9-9-|9-9-9-9-9-9-9-9-|
D|7---7-7-7-7-7-7-|7-7-7-7-7-7-7-7-|  (x2)  D|9---9-9-9-9-9-9-|9-9-9-9-9-9-9-9-|
A|7---7-7-7-7-7-7-|7-7-7-7-7-7-7-7-|        A|7---7-7-7-7-7-7-|7-7-7-7-7-7-7-7-|
E|5---5-5-5-5-5-5-|5-5-5-5-5-5-5-5-|        E|----------------|----------------|
  1 & 2 & 3 & 4 &  1 & 2 & 3 & 4 &            1 & 2 & 3 & 4 &  1 & 2 & 3 & 4 & 

  A                A
e|5---5-5-5-5-5-5-|5-5-5-5-5-5-5-5-|
B|5---5-5-5-5-5-5-|5-5-5-5-5-5-5-5-|
G|6---6-6-6-6-6-6-|6-6-6-6-6-6-6-6-|
D|7---7-7-7-7-7-7-|7-7-7-7-7-7-7-7-|
A|7---7-7-7-7-7-7-|7-7-7-7-7-7-7-7-|
E|5---5-5-5-5-5-5-|5-5-5-5-5-5-5-5-|
  1 & 2 & 3 & 4 &  1 & 2 & 3 & 4 &

  A                A                          E                E
e|5---5-5-5-5-5-5-|5-5-5-5-5-5-5-5-|        e|7---7-7-7-7-7-7-|7-7-7-7-7-7-7-7-|
B|5---5-5-5-5-5-5-|5-5-5-5-5-5-5-5-|        B|7---7-7-7-7-7-7-|7-7-7-7-7-7-7-7-|
G|6---6-6-6-6-6-6-|6-6-6-6-6-6-6-6-|        G|9---9-9-9-9-9-9-|9-9-9-9-9-9-9-9-|
D|7---7-7-7-7-7-7-|7-7-7-7-7-7-7-7-|  (x2)  D|9---9-9-9-9-9-9-|9-9-9-9-9-9-9-9-|
A|7---7-7-7-7-7-7-|7-7-7-7-7-7-7-7-|        A|7---7-7-7-7-7-7-|7-7-7-7-7-7-7-7-|
E|5---5-5-5-5-5-5-|5-5-5-5-5-5-5-5-|        E|----------------|----------------|
  1 & 2 & 3 & 4 &  1 & 2 & 3 & 4 &            1 & 2 & 3 & 4 &  1 & 2 & 3 & 4 & 

  A                A
e|5---5-5-5-5-5-5-|5-5-5-5-5-5-5-5-|
B|5---5-5-5-5-5-5-|5-5-5-5-5-5-5-5-|
G|6---6-6-6-6-6-6-|6-6-6-6-6-6-6-6-|
D|7---7-7-7-7-7-7-|7-7-7-7-7-7-7-7-|
A|7---7-7-7-7-7-7-|7-7-7-7-7-7-7-7-|
E|5---5-5-5-5-5-5-|5-5-5-5-5-5-5-5-|
  1 & 2 & 3 & 4 &  1 & 2 & 3 & 4 &

[Chorus]

(Guitar 1)

  D                E                A       G#       F#      E
e|5---5-5-5-5-5-5-|7---7-7-7-7-7-7-|----------------|----------------|
B|5---5-5-5-5-5-5-|7---7-7-7-7-7-7-|----------------|----------------|
G|7---7-7-7-7-7-7-|9---9-9-9-9-9-9-|9---9-9-8---8-8-|11--11119---9-9-|
D|7---7-7-7-7-7-7-|9---9-9-9-9-9-9-|7---7-7-6---6-6-|11--11119---9-9-|  (x2)
A|5---5-5-5-5-5-5-|7---7-7-7-7-7-7-|----------------|9---9-9-7---7-7-|
E|----------------|----------------|----------------|----------------|
  1 & 2 & 3 & 4 &  1 & 2 & 3 & 4 &  1 & 2 & 3 & 4 &  1 & 2 & 3 & 4 &

(Guitar 2)

  D                E                A       G#       F#      E
e|5---5-5-5-5-5-5-|7---7-7-7-7-7-7-|5---5-5-4---4-4-|2---2-2-0---0-0-|
B|5---5-5-5-5-5-5-|7---7-7-7-7-7-7-|5---5-5-4---4-4-|2---2-2-0---0-0-|
G|7---7-7-7-7-7-7-|9---9-9-9-9-9-9-|6---6-6-5---5-5-|3---3-3-1---1-1-|
D|7---7-7-7-7-7-7-|9---9-9-9-9-9-9-|7---7-7-6---6-6-|4---4-4-2---2-2-|  (x2)
A|5---5-5-5-5-5-5-|7---7-7-7-7-7-7-|7---7-7-6---6-6-|4---4-4-2---2-2-|
E|----------------|----------------|5---5-5-4---4-4-|2---2-2-0---0-0-|
  1 & 2 & 3 & 4 &  1 & 2 & 3 & 4 &  1 & 2 & 3 & 4 &  1 & 2 & 3 & 4 &

(Guitars 1 & 2)

  D                E                A                A
e|5---5-5-5-5-5-5-|7---7-7-7-7-7-7-|5---5-5-5-5-5-5-|5-5-5-5-5-5-5-5-|
B|5---5-5-5-5-5-5-|7---7-7-7-7-7-7-|5---5-5-5-5-5-5-|5-5-5-5-5-5-5-5-|
G|7---7-7-7-7-7-7-|9---9-9-9-9-9-9-|6---6-6-6-6-6-6-|6-6-6-6-6-6-6-6-|
D|7---7-7-7-7-7-7-|9---9-9-9-9-9-9-|7---7-7-7-7-7-7-|7-7-7-7-7-7-7-7-|
A|5---5-5-5-5-5-5-|7---7-7-7-7-7-7-|7---7-7-7-7-7-7-|7-7-7-7-7-7-7-7-|
E|----------------|----------------|5---5-5-5-5-5-5-|5-5-5-5-5-5-5-5-|
  1 & 2 & 3 & 4 &  1 & 2 & 3 & 4 &  1 & 2 & 3 & 4 &  1 & 2 & 3 & 4 &

[Interlude]

(Guitar 1)

  D                E                A       G#       F#      E
e|5---5-5-5-5-5-5-|7---7-7-7-7-7-7-|----------------|----------------|
B|5---5-5-5-5-5-5-|7---7-7-7-7-7-7-|----------------|----------------|
G|7---7-7-7-7-7-7-|9---9-9-9-9-9-9-|9---9-9-8---8-8-|11--11119---9-9-|
D|7---7-7-7-7-7-7-|9---9-9-9-9-9-9-|7---7-7-6---6-6-|11--11119---9-9-|  (x2)
A|5---5-5-5-5-5-5-|7---7-7-7-7-7-7-|----------------|9---9-9-7---7-7-|
E|----------------|----------------|----------------|----------------|
  1 & 2 & 3 & 4 &  1 & 2 & 3 & 4 &  1 & 2 & 3 & 4 &  1 & 2 & 3 & 4 &

(Guitar 2)

  D                E                A       G#       F#      E
e|5---5-5-5-5-5-5-|7---7-7-7-7-7-7-|5---5-5-4---4-4-|2---2-2-0---0-0-|
B|5---5-5-5-5-5-5-|7---7-7-7-7-7-7-|5---5-5-4---4-4-|2---2-2-0---0-0-|
G|7---7-7-7-7-7-7-|9---9-9-9-9-9-9-|6---6-6-5---5-5-|3---3-3-1---1-1-|
D|7---7-7-7-7-7-7-|9---9-9-9-9-9-9-|7---7-7-6---6-6-|4---4-4-2---2-2-|  (x2)
A|5---5-5-5-5-5-5-|7---7-7-7-7-7-7-|7---7-7-6---6-6-|4---4-4-2---2-2-|
E|----------------|----------------|5---5-5-4---4-4-|2---2-2-0---0-0-|
  1 & 2 & 3 & 4 &  1 & 2 & 3 & 4 &  1 & 2 & 3 & 4 &  1 & 2 & 3 & 4 &

(Guitars 1 & 2)

  D                E                A                A
e|5---5-5-5-5-5-5-|7---7-7-7-7-7-7-|5---5-5-5-5-5-5-|5-5-5-5-5-5-5-5-|
B|5---5-5-5-5-5-5-|7---7-7-7-7-7-7-|5---5-5-5-5-5-5-|5-5-5-5-5-5-5-5-|
G|7---7-7-7-7-7-7-|9---9-9-9-9-9-9-|6---6-6-6-6-6-6-|6-6-6-6-6-6-6-6-|
D|7---7-7-7-7-7-7-|9---9-9-9-9-9-9-|7---7-7-7-7-7-7-|7-7-7-7-7-7-7-7-|
A|5---5-5-5-5-5-5-|7---7-7-7-7-7-7-|7---7-7-7-7-7-7-|7-7-7-7-7-7-7-7-|
E|----------------|----------------|5---5-5-5-5-5-5-|5-5-5-5-5-5-5-5-|
  1 & 2 & 3 & 4 &  1 & 2 & 3 & 4 &  1 & 2 & 3 & 4 &  1 & 2 & 3 & 4 &

[Verse]

(Guitars 1 & 2)

  A                A                          E                E
e|5---5-5-5-5-5-5-|5-5-5-5-5-5-5-5-|        e|7---7-7-7-7-7-7-|7-7-7-7-7-7-7-7-|
B|5---5-5-5-5-5-5-|5-5-5-5-5-5-5-5-|        B|7---7-7-7-7-7-7-|7-7-7-7-7-7-7-7-|
G|6---6-6-6-6-6-6-|6-6-6-6-6-6-6-6-|        G|9---9-9-9-9-9-9-|9-9-9-9-9-9-9-9-|
D|7---7-7-7-7-7-7-|7-7-7-7-7-7-7-7-|  (x2)  D|9---9-9-9-9-9-9-|9-9-9-9-9-9-9-9-|
A|7---7-7-7-7-7-7-|7-7-7-7-7-7-7-7-|        A|7---7-7-7-7-7-7-|7-7-7-7-7-7-7-7-|
E|5---5-5-5-5-5-5-|5-5-5-5-5-5-5-5-|        E|----------------|----------------|
  1 & 2 & 3 & 4 &  1 & 2 & 3 & 4 &            1 & 2 & 3 & 4 &  1 & 2 & 3 & 4 & 

  A                A
e|5---5-5-5-5-5-5-|5-5-5-5-5-5-5-5-|
B|5---5-5-5-5-5-5-|5-5-5-5-5-5-5-5-|
G|6---6-6-6-6-6-6-|6-6-6-6-6-6-6-6-|
D|7---7-7-7-7-7-7-|7-7-7-7-7-7-7-7-|
A|7---7-7-7-7-7-7-|7-7-7-7-7-7-7-7-|
E|5---5-5-5-5-5-5-|5-5-5-5-5-5-5-5-|
  1 & 2 & 3 & 4 &  1 & 2 & 3 & 4 &

  A                A                          E                E
e|5---5-5-5-5-5-5-|5-5-5-5-5-5-5-5-|        e|7---7-7-7-7-7-7-|7-7-7-7-7-7-7-7-|
B|5---5-5-5-5-5-5-|5-5-5-5-5-5-5-5-|        B|7---7-7-7-7-7-7-|7-7-7-7-7-7-7-7-|
G|6---6-6-6-6-6-6-|6-6-6-6-6-6-6-6-|        G|9---9-9-9-9-9-9-|9-9-9-9-9-9-9-9-|
D|7---7-7-7-7-7-7-|7-7-7-7-7-7-7-7-|  (x2)  D|9---9-9-9-9-9-9-|9-9-9-9-9-9-9-9-|
A|7---7-7-7-7-7-7-|7-7-7-7-7-7-7-7-|        A|7---7-7-7-7-7-7-|7-7-7-7-7-7-7-7-|
E|5---5-5-5-5-5-5-|5-5-5-5-5-5-5-5-|        E|----------------|----------------|
  1 & 2 & 3 & 4 &  1 & 2 & 3 & 4 &            1 & 2 & 3 & 4 &  1 & 2 & 3 & 4 & 

  A                A
e|5---5-5-5-5-5-5-|5-5-5-5-5-5-5-5-|
B|5---5-5-5-5-5-5-|5-5-5-5-5-5-5-5-|
G|6---6-6-6-6-6-6-|6-6-6-6-6-6-6-6-|
D|7---7-7-7-7-7-7-|7-7-7-7-7-7-7-7-|
A|7---7-7-7-7-7-7-|7-7-7-7-7-7-7-7-|
E|5---5-5-5-5-5-5-|5-5-5-5-5-5-5-5-|
  1 & 2 & 3 & 4 &  1 & 2 & 3 & 4 &

[Chorus]

(Guitar 1)

  D                E                A       G#       F#      E
e|5---5-5-5-5-5-5-|7---7-7-7-7-7-7-|----------------|----------------|
B|5---5-5-5-5-5-5-|7---7-7-7-7-7-7-|----------------|----------------|
G|7---7-7-7-7-7-7-|9---9-9-9-9-9-9-|9---9-9-8---8-8-|11--11119---9-9-|
D|7---7-7-7-7-7-7-|9---9-9-9-9-9-9-|7---7-7-6---6-6-|11--11119---9-9-|  (x2)
A|5---5-5-5-5-5-5-|7---7-7-7-7-7-7-|----------------|9---9-9-7---7-7-|
E|----------------|----------------|----------------|----------------|
  1 & 2 & 3 & 4 &  1 & 2 & 3 & 4 &  1 & 2 & 3 & 4 &  1 & 2 & 3 & 4 &

(Guitar 2)

  D                E                A       G#       F#      E
e|5---5-5-5-5-5-5-|7---7-7-7-7-7-7-|5---5-5-4---4-4-|2---2-2-0---0-0-|
B|5---5-5-5-5-5-5-|7---7-7-7-7-7-7-|5---5-5-4---4-4-|2---2-2-0---0-0-|
G|7---7-7-7-7-7-7-|9---9-9-9-9-9-9-|6---6-6-5---5-5-|3---3-3-1---1-1-|
D|7---7-7-7-7-7-7-|9---9-9-9-9-9-9-|7---7-7-6---6-6-|4---4-4-2---2-2-|  (x2)
A|5---5-5-5-5-5-5-|7---7-7-7-7-7-7-|7---7-7-6---6-6-|4---4-4-2---2-2-|
E|----------------|----------------|5---5-5-4---4-4-|2---2-2-0---0-0-|
  1 & 2 & 3 & 4 &  1 & 2 & 3 & 4 &  1 & 2 & 3 & 4 &  1 & 2 & 3 & 4 &

(Guitars 1 & 2)

  D                E                A                A
e|5---5-5-5-5-5-5-|7---7-7-7-7-7-7-|5---5-5-5-5-5-5-|5-5-5-5-5-5-5-5-|
B|5---5-5-5-5-5-5-|7---7-7-7-7-7-7-|5---5-5-5-5-5-5-|5-5-5-5-5-5-5-5-|
G|7---7-7-7-7-7-7-|9---9-9-9-9-9-9-|6---6-6-6-6-6-6-|6-6-6-6-6-6-6-6-|
D|7---7-7-7-7-7-7-|9---9-9-9-9-9-9-|7---7-7-7-7-7-7-|7-7-7-7-7-7-7-7-|
A|5---5-5-5-5-5-5-|7---7-7-7-7-7-7-|7---7-7-7-7-7-7-|7-7-7-7-7-7-7-7-|
E|----------------|----------------|5---5-5-5-5-5-5-|5-5-5-5-5-5-5-5-|
  1 & 2 & 3 & 4 &  1 & 2 & 3 & 4 &  1 & 2 & 3 & 4 &  1 & 2 & 3 & 4 &

  A
e|5---------------|
B|5---------------|
G|6---------------|
D|7---------------|
A|7---------------|
E|5---------------|
  1 & 2 & 3 & 4 &

************************************

| x   Dead note
| g   Grace note
| (n) Ghost note
| h   Hammer-on
| p   Pull-off
| r   Release
| >   Accented note
| t   Tapping
| b   Bend
| br  Bend release
| pb  Pre-bend
| pbr Pre-bend release
| /   Slide up
| \   Slide down
| ~   Vibrato
| s   Slap
| P   Pop
| PM  Palm mute
| TR  Trill
| N   Tremolo

************************************
Suggest correction
Give kudos to tab author, rate the tab!
1 2 3 4 5
comments
print report bad tab
guest
You may want to rate the tab now too:
select rating
Wanna post a correction for this tab? Suggest correction