Oops, an error
Loading. Please wait.

Heidi Is A Headcase Bass Tab

1 view 1 this week
no commentswrite comment
1 2 3 4 5
3 more votes to show rating
add to favorites
launch autoscroll
font size
0
reset
guitar tuner
Autoscroll
slow
fast
+/-
esc
set tempo
stop
Help us to improve Ultimate-Guitar.com Take our survey!
×
Author
Difficulty
novice
------------------------------------------------------------------------------
                  Heidi Is A Headcase - The Ramones
------------------------------------------------------------------------------

Tabbed by: ChrisT

From the Album: The Chrysalis Years (2002)

Tuning: Standard

Intro
G|----------------------------------------|
D|o--------------------------------------o|
A|o--2h4--4-4-2h4--4-4-2h4--4-4--2-------o|
E|---------------------------------2------|

Verse                        Repeat x4
G|------------------------------------|-------------------------------------------------|
D|o----------------------------------o|-------------------------------------------------|
A|o--2h4-4-4-4-4-4-4-4-4-4-4-2-------o|---2-----4-----4-----2-----2-----4------4--------|
E|-----------------------------2------|-----2-----4-----4-----2-----2-----4------4------|

G|-----------------------------------|---------------------------------------|
D|-----------------------------------|---------------------------------------|
A|---2h4-4-4-4-4-4-4-4-4-4-4-2-------|---2h4-4-4-4-4-4-4-4-4-4-4-4-4-4-4-----|
E|-----------------------------2-----|---------------------------------------|

Chorus
G|-----------------------------------------------------------------------|
D|-----------------------------------------------------------------------|
A|-------------------2-2-2-2-2-2-2-2-4-4-4-4-4-4-4-4-4-4-4-4-4-4-4-4-----|
E|---0-0-0-0-0-0-0-0-----------------------------------------------------|

G|-----------------------------------------------------------------------|
D|-----------------------------------------------------------------------|
A|-------------------2-2-2-2-2-2-2-2-------------------------------------|
E|---0-0-0-0-0-0-0-0-----------------4-4-4-4-4-4-4-4-4-4-4-4-4-4-4-4-----|

                                 Repeat x4
G|----------------------------------------|
D|o--------------------------------------o|
A|o--2h4--4-4-2h4--4-4-2h4--4-4--2-------o|
E|---------------------------------2------|

Verse                        Repeat x4
G|------------------------------------|-------------------------------------------------|
D|o----------------------------------o|-------------------------------------------------|
A|o--2h4-4-4-4-4-4-4-4-4-4-4-2-------o|---2-----4-----4-----2-----2-----4------4--------|
E|-----------------------------2------|-----2-----4-----4-----2-----2-----4------4------|

G|-----------------------------------|---------------------------------------|
D|-----------------------------------|---------------------------------------|
A|---2h4-4-4-4-4-4-4-4-4-4-4-2-------|---2h4-4-4-4-4-4-4-4-4-4-4-4-4-4-4-----|
E|-----------------------------2-----|---------------------------------------|

Chorus
G|-----------------------------------------------------------------------|
D|-----------------------------------------------------------------------|
A|-------------------2-2-2-2-2-2-2-2-4-4-4-4-4-4-4-4-4-4-4-4-4-4-4-4-----|
E|---0-0-0-0-0-0-0-0-----------------------------------------------------|

G|-----------------------------------------------------------------------|
D|-----------------------------------------------------------------------|
A|-------------------2-2-2-2-2-2-2-2-------------------------------------|
E|---0-0-0-0-0-0-0-0-----------------4-4-4-4-4-4-4-4-4-4-4-4-4-4-4-4-----|

                                 Repeat x4
G|----------------------------------------|
D|o--------------------------------------o|
A|o--2h4--4-4-2h4--4-4-2h4--4-4--2-------o|
E|---------------------------------2------|

Bridge
G|-----------------------------------------------------------------------|
D|-----------------------------------------------------------------------|
A|---1-1-1-1-1-1-1-1-1-1-1-1-1-1-1-1-------------------------------------|
E|-----------------------------------4-4-4-4-4-4-4-4-4-4-4-4-4-4-4-4-----|

G|-----------------------------------------------------------------------|
D|-----------------------------------------------------------------------|
A|---2-2-2-2-2-2-2-2-2-2-2-2-2-2-2-2-------------------------------------|
E|-----------------------------------2-2-2-2-2-2-2-2-2-2-2-2-2-2-2-2-----|

G|-----------------------------------------------------------------------|
D|-----------------------------------------------------------------------|
A|---1-1-1-1-1-1-1-1-1-1-1-1-1-1-1-1-------------------------------------|
E|-----------------------------------4-4-4-4-4-4-4-4-4-4-4-4-4-4-4-4-----|

G|-----------------------------------------------------------------------|
D|-----------------------------------------------------------------------|
A|---2-2-2-2-2-2-2-2-2-2-2-2-2-2-2-2-------------------------------------|
E|-----------------------------------4-4-4-4-4-4-4-4-4-4-4-4-4-4-4-4-----|

Outro                            Repeat x8
G|----------------------------------------|-----------------------|
D|o--------------------------------------o|-----------------------|
A|o--2h4--4-4-2h4--4-4-2h4--4-4--2-------o|---2-----2-----4-------|
E|---------------------------------2------|-----2-----2-----------|


================
h - Hammer-on
================
Suggest correction
Give kudos to tab author, rate the tab!
1 2 3 4 5
comments
print report bad tab
guest
You may want to rate the tab now too:
select rating
Wanna post a correction for this tab? Suggest correction