Oops, an error
Loading. Please wait.

I Cant Control Myself Bass Tab

10 views 1 this week
no commentswrite comment
1 2 3 4 5
3 more votes to show rating
add to favorites
launch autoscroll
font size
0
reset
guitar tuner
Autoscroll
slow
fast
+/-
esc
set tempo
stop
Help us to improve Ultimate-Guitar.com Take our survey!
×
Author
Difficulty
novice
------------------------------------------------------------------------------
                   I Can’t Control Myself - The Ramones
------------------------------------------------------------------------------

Tabbed by: ChrisT

From the Album: The Chrysalis Years (2002)

Tuning: Standard

Intro
G|--------------------------------------------------------------------|
D|--------------------------------------------------------------------|
A|-----------------3---2---------------------------3---2--------------|
E|---3---3---5-3-5---------5---3-3---3---3---5-3-5---------5---3-3----|

Verse
G|--------------------------------------------------------------------|
D|--------------------------------------------------------------------|
A|-------------------------------------------------3---2--------------|
E|---3-3-3-3-3-3-3-3-3-3-3-3-3-3-3-3-3---3---5-3-5---------5---3-3----|

G|--------------------------------------------------------------------|
D|--------------------------------------------------------------------|
A|-------------------------------------------------3---2--------------|
E|---3-3-3-3-3-3-3-3-3-3-3-3-3-3-3-3-3---3---5-3-5---------5---3-3----|

Chorus
G|--------------------------------------------------------------------|
D|--------------------------------------------------------------------|
A|---3-3-3-3-3-3-3-3-5-5-5-5-5-5-5-5-3-3-3-3-3-3-3-3-5-5-5-5-5-5-5----|
E|--------------------------------------------------------------------|

G|----------------------------------------------------------------------------|
D|----------------------------------------------------------------------------|
A|---3-3-3-3-3-3-3-3-5-5-5-5-5-5-5-5-3~---------------------------------------|
E|---------------------------------------------------------5~-----------------|

Verse
G|--------------------------------------------------------------------|
D|--------------------------------------------------------------------|
A|-------------------------------------------------3---2--------------|
E|---3-3-3-3-3-3-3-3-3-3-3-3-3-3-3-3-3---3---5-3-5---------5---3-3----|

G|--------------------------------------------------------------------|
D|--------------------------------------------------------------------|
A|-------------------------------------------------3---2--------------|
E|---3-3-3-3-3-3-3-3-3-3-3-3-3-3-3-3-3---3---5-3-5---------5---3-3----|

Chorus
G|--------------------------------------------------------------------|
D|--------------------------------------------------------------------|
A|---3-3-3-3-3-3-3-3-5-5-5-5-5-5-5-5-3-3-3-3-3-3-3-3-5-5-5-5-5-5-5----|
E|--------------------------------------------------------------------|

G|----------------------------------------------------------------------------|
D|----------------------------------------------------------------------------|
A|---3-3-3-3-3-3-3-3-5-5-5-5-5-5-5-5-3~---------------------------------------|
E|---------------------------------------------------------5~-----------------|

G|----------------------------------------------------------------------|
D|----------------------------------------------------------------------|
A|----------------------------------------------------------------------|
E|---5-5-3-5---5-5-5-5-5-3-5---5-5-5-5-5-3-5---5-5-5-5-5-3-5---5-5-5----|

Bridge
G|----------------------------------------------------------------------|
D|o--------------------------------------------------------------------o|
A|o--------------------------------------------------------------------o|
E|---5-5-3-5---5-5-5-5-5-3-5---5-5-5-5-5-3-5---5-5-5-5-5-3-5---5-5-5----|

G|--------------------------------------------------------------------------------------|
D|--------------------------------------------------------------------------------------|
A|--------------------------------------------------------------------------------------|
E|---0---0---5-5-3-5---0---0---5-5-3-5---5-5-3-5---5-5-3-5---5-5-3-5-5-5-5-5-5-5-5-5----|

G|--------------------------------------------------------------------|
D|--------------------------------------------------------------------|
A|-----------------3---2---------------------------3---2--------------|
E|---3---3---5-3-5---------5---3-3---3---3---5-3-5---------5---3-3----|

Verse
G|--------------------------------------------------------------------|
D|--------------------------------------------------------------------|
A|-------------------------------------------------3---2--------------|
E|---3-3-3-3-3-3-3-3-3-3-3-3-3-3-3-3-3---3---5-3-5---------5---3-3----|

G|--------------------------------------------------------------------|
D|--------------------------------------------------------------------|
A|-------------------------------------------------3---2--------------|
E|---3-3-3-3-3-3-3-3-3-3-3-3-3-3-3-3-3---3---5-3-5---------5---3-3----|

Chorus
G|--------------------------------------------------------------------|
D|--------------------------------------------------------------------|
A|---3-3-3-3-3-3-3-3-5-5-5-5-5-5-5-5-3-3-3-3-3-3-3-3-5-5-5-5-5-5-5----|
E|--------------------------------------------------------------------|

G|----------------------------------------------------------------------------|
D|----------------------------------------------------------------------------|
A|---3-3-3-3-3-3-3-3-5-5-5-5-5-5-5-5-3~---------------------------------------|
E|---------------------------------------------------------5~-----------------|

Outro                           
G|--------------------------------------------------------------------|
D|o------------------------------------------------------------------o|
A|o----------------3---2---------------------------3---2-------------o|
E|---3---3---5-3-5---------5---3-3---3---3---5-3-5---------5---3-3----|

G|--------------------------------------------------------------------|
D|--------------------------------------------------------------------|
A|-----------------3---2----------------------------------------------|
E|---3---3---5-3-5---------5---3-3---3~-------------------------------|

Suggest correction
Give kudos to tab author, rate the tab!
1 2 3 4 5
comments
print report bad tab
guest
You may want to rate the tab now too:
select rating
Wanna post a correction for this tab? Suggest correction