Oops, an error
Loading. Please wait.

I Dont Want To Grow Up Bass

version 1
version 1

Whole song

Interactive

by Ramones
6,411 views 12 this week
2 commentsread comments
1 2 3 4 5
x 4
add to favorites
launch autoscroll
font size
0
reset
guitar tuner
×
Best way to learn
"I Dont Want To Grow Up"
Autoscroll
slow
fast
+/-
esc
set tempo
stop
Author
INTRO

G--------------------------|
D-0-0-0-0-0-0-0-0-0--------|
A--------------------------|
E--------------------------|

VERSE1


G---------------------------------|
D---------------------------------|
A-5-5-5-5-5-5-5-5---------5-5-5-5-|  X2
E-----------------5-5-5-5---------|


G---------------------------------|
D---------------------------------|
A-2-2-2-2-------------------------|  X2
E---------2-2-2-2-3-3-3-3-5-5-5-5-|


G---------------------------------|
D---------------------------------|
A-5-5-5-5-5-5-5-5---------5-5-5-5-|  X2
E-----------------5-5-5-5---------|

G---------------------------------|
D---------------------------------|
A-2-2-2-2-------------------------|  X2
E---------2-2-2-2-3-3-3-3-5-5-5-5-|

G---------------------------------|
D---------------------------------|
A-5-5-5-5-5-5-5-5---------5-5-5-5-|  X2
E-----------------5-5-5-5---------|

CHORUS

G-----------------------|
D-----------------------|
A-2-2-2-2---------------|  X6
E---------2-2-2-2-------|

CHORUS ENDING THINGY

G---------------------------|
D---------------------------|
A------------------5-5-5-5--|
E--3-3-3-3-5-5-5-5----------|


SOLO

G---------------------------------|
D---------------------------------|
A-5-5-5-5-5-5-5-5---------5-5-5-5-|  X2
E-----------------5-5-5-5---------|

G---------------------------------|
D---------------------------------|
A-2-2-2-2-------------------------|
E---------2-2-2-2-3-3-3-3-5-5-5-5-|

VERSE2

G---------------------------------|
D---------------------------------|
A-5-5-5-5-5-5-5-5---------5-5-5-5-|  X2
E-----------------5-5-5-5---------|

CHORUS2


G-----------------------|
D-----------------------|
A-2-2-2-2---------------|  X6
E---------2-2-2-2-------|

CHORUS2 ENDING THINGY

G-----------------------|
D-----------------------|
A-----------------------|
E-3-3-3-3-5-5-5-5-------|

VERSE3

G---------------------------------|
D---------------------------------|
A-5-5-5-5-5-5-5-5---------5-5-5-5-|  X2
E-----------------5-5-5-5---------|

CHORUS

G-----------------|
D-----------------|
A-2-2-2-2---------|  X7
E---------2-2-2-2-|

OUTRO

G------------------------------------|
D------------------------------------|
A-------------------5-5-5-5-5-(HOLD)-|
E-3-3-3-3-5-5-5-5-5------------------|
Suggest correction
comments
print report bad tab
2 comments total.
+1 reply
frenchabortion 16,401 Feb 27, 2008 07:57 PM

I Dont Want To Grow Up Bass Tab by Ramones, www.Ultimate-Guitar.Com

INTRO

G--------------------------|
D-0-0-0-0-0-0-0-0-0--------|
A--------------------------|
E--------------------------|

VERSE1
G---------------------------------|
D---------------------------------|
A-5-5-5-5-5-5-5-5---------5-5-5-5-| X2
E-----------------5-5-5-5---------|

guest
You may want to rate the tab now too:
select rating
Wanna post a correction for this tab? Suggest correction