Oops, an error
Loading. Please wait.

I Just Want To Have Something To Do Bass Tab

version 2
version 2

Whole song

2,178 views 12 this week
2 commentsread comments
1 2 3 4 5
x 3
add to favorites
launch autoscroll
font size
0
reset
guitar tuner
Autoscroll
slow
fast
+/-
esc
set tempo
stop
Help us to improve Ultimate-Guitar.com Take our survey!
×
Author
Difficulty
novice
This song is more hardcore than the rest of there work, but still has that "Ramones" fell to it.

Intro/Main
G|------------------------------|
D|------------------------------|
A|------------------------------|
E|--5-5-5-5-5--3--1-1-1-1-1--3--|

Verse
G|------------------------------------|
D|------------------------------------|
A|------------------------------------|
E|--5-5-5-5-5-5-5-5--1-1-1-1-3-3-3-3--|

Chorus  “Tonight…tonight...tonight.”
G|--------------------------------------------------|
D|--------------------------------------------------|
A|--------------------------------------------------|
E|--1--1-1-1-1-1-1--3--3-3-3-3-3-3--5--5-5-5-5-5-5--|

Bridge
G|------------------------------|
D|------------------------------|
A|------------------------------|
E|--5-5-5-5-5--3--1-1-1-1-1--3--|

Way too f*cking easy. I guess there bassists aren't that great. 
Suggest correction
Give kudos to tab author, rate the tab!
1 2 3 4 5
comments
print report bad tab
2 comments total.
+1 reply
isaiahgeor 10 Jan 08, 2014 02:50 AM

"...I guess there bassist isn't that great..." are you ****ing stupid? You're saying that just because the bassline is easy to play, the bassist is bad?

0 reply
DrSeemann 52 Jan 25, 2015 07:11 AM

Not only are you a douche, but you can't get the tab right either.
Watch a video of the song - played by the Ramones and you'll see how Dee Dee played it.

guest
You may want to rate the tab now too:
select rating
Wanna post a correction for this tab? Suggest correction