Oops, an error
Loading. Please wait.

I Love You Bass Tab

7 views 1 this week
no commentswrite comment
1 2 3 4 5
3 more votes to show rating
add to favorites
launch autoscroll
font size
0
reset
guitar tuner
Autoscroll
slow
fast
+/-
esc
set tempo
stop
Help us to improve Ultimate-Guitar.com Take our survey!
×
Author
Difficulty
novice
------------------------------------------------------------------------------
                     I Love You - The Ramones
------------------------------------------------------------------------------

Tabbed by: ChrisT

From the Album: The Chrysalis Years (2002)

Tuning: Standard

Intro (0:03)
G|-----------------------------------------|
D|-----------------------------------------|
A|-------------------7---7-7-7-7-7-7-7-----|
E|---5---5-5-7---7-7-----------------------|

Verse                             Repeat x3
G|-----------------------------------------|
D|o---------------------------------------o|
A|o------------------7---7-7-7-7-7-7-7----o|
E|---5---5-5-7---7-7-----------------------|

G|---------------------------------------|
D|---------------------------------------|
A|---5-5-5-5-5-5-5-5-5-5-5-5-5-5-5-5-----|
E|---------------------------------------|

                                  Repeat x3
G|-----------------------------------------|
D|o---------------------------------------o|
A|o------------------7---7-7-7-7-7-7-7----o|
E|---5---5-5-7---7-7-----------------------|

Chorus                         Repeat x3
G|--------------------------------------|
D|o------------------------------------o|
A|o--5-5-------------------------------o|
E|-------7-7-5-5-2-2-3-3-3-3-5-5-5-5----|

Verse                             Repeat x3
G|-----------------------------------------|
D|o---------------------------------------o|
A|o------------------7---7-7-7-7-7-7-7----o|
E|---5---5-5-7---7-7-----------------------|

G|---------------------------------------|
D|---------------------------------------|
A|---5-5-5-5-5-5-5-5-5-5-5-5-5-5-5-5-----|
E|---------------------------------------|

                                  Repeat x3
G|-----------------------------------------|
D|o---------------------------------------o|
A|o------------------7---7-7-7-7-7-7-7----o|
E|---5---5-5-7---7-7-----------------------|

Chorus                         Repeat x3
G|--------------------------------------|
D|o------------------------------------o|
A|o--5-5-------------------------------o|
E|-------7-7-5-5-2-2-3-3-3-3-5-5-5-5----|

Guitar Solo                       Repeat x3
G|-----------------------------------------|
D|o---------------------------------------o|
A|o------------------7---7-7-7-7-7-7-7----o|
E|---5---5-5-7---7-7-----------------------|

G|---------------------------------------|
D|---------------------------------------|
A|---5-5-5-5-5-5-5-5-5-5-5-5-5-5-5-5-----|
E|---------------------------------------|

                                  Repeat x3
G|-----------------------------------------|
D|o---------------------------------------o|
A|o------------------7---7-7-7-7-7-7-7----o|
E|---5---5-5-7---7-7-----------------------|

Chorus                         Repeat x5
G|--------------------------------------|
D|o------------------------------------o|
A|o--5-5-------------------------------o|
E|-------7-7-5-5-2-2-3-3-3-3-5-5-5-5----|

                                  Repeat x3
G|-----------------------------------------|
D|o---------------------------------------o|
A|o------------------7---7-7-7-7-7-7-7----o|
E|---5---5-5-7---7-7-----------------------|

G|----------------------------------------------------------------------|
D|----------------------------------------------------------------------|
A|---5-5-5-5-5-5-5-5-5-5-5-5-5-5-5-5-5-5-5-5-5-5-5-5-5-5-5-5-5-5-5-5----|
E|----------------------------------------------------------------------|

Suggest correction
Give kudos to tab author, rate the tab!
1 2 3 4 5
comments
print report bad tab
guest
You may want to rate the tab now too:
select rating
Wanna post a correction for this tab? Suggest correction