Oops, an error
Loading. Please wait.

Ignorance Is Bliss Bass Tab

10 views 1 this week
no commentswrite comment
1 2 3 4 5
3 more votes to show rating
add to favorites
launch autoscroll
font size
0
reset
guitar tuner
Autoscroll
slow
fast
+/-
esc
set tempo
stop
Help us to improve Ultimate-Guitar.com Take our survey!
×
Author
Difficulty
novice
------------------------------------------------------------------------------
                   Ignorance Is Bliss - The Ramones
------------------------------------------------------------------------------

Tabbed by: ChrisT

From the Album: The Chrysalis Years (2002)

Tuning: Standard

Intro
G|--------------------------------------------------|
D|--------------------------------------------------|
A|-----------------7--5-7\---------------7--5-7\----|
E|---0---------------------0------------------------|

Verse
G|--------------------------------------------------|
D|o------------------------------------------------o|
A|o----------------7--5-7----------------7--5-7----o|
E|---0--3-5--6-5-3---------0--3-5--6-5-3------------|

G|----------------------------------------------------------------------|
D|----------------------------------------------------------------------|
A|----------------------------------------------------------------------|
E|---5-5-5-5-5-5-5-5-5-5-5-5-5-5-5-5-5-5-5-5-5-5-5-5-5-5-5-5-5-5-5-5----|

G|--------------------------------------------------|
D|o------------------------------------------------o|
A|o----------------7--5-7----------------7--5-7----o|
E|---0--3-5--6-5-3---------0--3-5--6-5-3------------|

G|-----------------------------------------------------------|
D|-----------------------------------------------------------|
A|---3-3-3-3-3-3-3-3-5-5-5-5-5-5-5-5---------------7--5-7----|
E|-----------------------------------0--3-5--6-5-3-----------|

G|----------------------------------------------------------------------|
D|----------------------------------------------------------------------|
A|---3-3-3-3-3-3-3-3-5-5-5-5-5-5-5-5-2-2-2-2-2-2-2-2-2-2-2-2-2-2-2-2----|
E|----------------------------------------------------------------------|

Verse
G|--------------------------------------------------|
D|o------------------------------------------------o|
A|o----------------7--5-7----------------7--5-7----o|
E|---0--3-5--6-5-3---------0--3-5--6-5-3------------|

G|----------------------------------------------------------------------|
D|----------------------------------------------------------------------|
A|----------------------------------------------------------------------|
E|---5-5-5-5-5-5-5-5-5-5-5-5-5-5-5-5-5-5-5-5-5-5-5-5-5-5-5-5-5-5-5-5----|

G|--------------------------------------------------|
D|o------------------------------------------------o|
A|o----------------7--5-7----------------7--5-7----o|
E|---0--3-5--6-5-3---------0--3-5--6-5-3------------|

G|-----------------------------------------------------------|
D|-----------------------------------------------------------|
A|---3-3-3-3-3-3-3-3-5-5-5-5-5-5-5-5---------------7--5-7----|
E|-----------------------------------0--3-5--6-5-3-----------|

G|----------------------------------------------------------------------|
D|----------------------------------------------------------------------|
A|---3-3-3-3-3-3-3-3-5-5-5-5-5-5-5-5-2-2-2-2-2-2-2-2-2-2-2-2-2-2-2-2----|
E|----------------------------------------------------------------------|

G|--------------------------------------------------|
D|--------------------------------------------------|
A|-----------------7--5-7----------------7--5-7-----|
E|---0--3-5--6-5-3---------0--3-5--6-5-3------------|

Guitar Solo
G|----------------------------------------------------------------------|
D|----------------------------------------------------------------------|
A|-----------------------------------5-5-5-5-5-5-5-5-3-3-3-3-3-3-3-3----|
E|---5-5-5-5-5-5-5-5-3-3-3-3-3-3-3-3------------------------------------|

G|--------------------------------------------------|
D|--------------------------------------------------|
A|-----------------7--5-7----------------7--5-7-----|
E|---0--3-5--6-5-3---------0--3-5--6-5-3------------|

G|----------------------------------------------------------------------|
D|----------------------------------------------------------------------|
A|-----------------------------------5-5-5-5-5-5-5-5-3-3-3-3-3-3-3-3----|
E|---5-5-5-5-5-5-5-5-3-3-3-3-3-3-3-3------------------------------------|

G|----------------------------------------------------------------------------------|
D|----------------------------------------------------------------------------------|
A|---2-2-2-2-2-2-2-2-2-2-2-2-2-2-2-2---------------7--5-7\---------------7--5-7\----|
E|-----------------------------------0---------------------0------------------------|

Outro
G|--------------------------------------------------|
D|--------------------------------------------------|
A|-----------------7--5-7----------------7--5-7-----|
E|---0--3-5--6-5-3---------0--3-5--6-5-3------------|

                                                    Repeat x4
G|-----------------------------------------------------------|
D|o---------------------------------------------------------o|
A|o--3-3-3-3-3-3-3-3-5-5-5-5-5-5-5-5---------------7--5-7---o|
E|-----------------------------------0--3-5--6-5-3-----------|

G|------------------------------|
D|------------------------------|
A|-----------------7--5-7\------|
E|---0--3-5--6-5-3--------------|


Suggest correction
Give kudos to tab author, rate the tab!
1 2 3 4 5
comments
print report bad tab
guest
You may want to rate the tab now too:
select rating
Wanna post a correction for this tab? Suggest correction