Oops, an error
Loading. Please wait.

Indian Giver Bass Tab

version 1
version 1

Whole song

Interactive

617 views 1 this week
no commentswrite comment
1 2 3 4 5
2 more votes to show rating
add to favorites
launch autoscroll
font size
0
reset
guitar tuner
Autoscroll
slow
fast
+/-
esc
set tempo
stop
Help us to improve Ultimate-Guitar.com Take our survey!
×
Author
Difficulty
intermediate
Indian Giver by the Ramones
Tabbed by Pat Murphy
Standard Tuning

Rest for two measures while guitar plays

Intro
G------------------------------|
D------------------------------|
A-5--5-5--5-5--5---------------|x2
E---------------5--5-5--5-5--5-|

Verse
G-----------------------------------------------------------------|
D---------------------------------5-5-5-5-5-5-5-5-----------------|
A-5-5-5-5-5-5-5-5-7-7-7-7-7-7-7-7-----------------5-5-5-5-5-5-5-5-|x2
E-----------------------------------------------------------------|

Pre-Chorus
G-----------------------------------------------------------------|
D-----------------------------------------------------------------|
A---------------------------------5-5-5-5-5-5-5-5-----------------|x1
E-3-3-3-3-3-3-3-3-3-3-3-3-3-3-3-3-----------------5-5-5-5-5-5-5-5-|

Chorus
G-----------------------------------------------------------------|
D-----------------------------------------------------------------|
A-5-5-5-5-5-5-5-5-5-5-5-5-5-5-5-5-5-5-5-5-5-5-5-5---------5-5-5-5-|x2
E-------------------------------------------------5-5-5-5---------|

Intro x 2
Verse x 2
Pre-Chorus x 1
Chorus x 2

Solo
G--------------------------------------------------------------------------
D--------------------------------------------------------------------------
A---------------------------------5-5-5-5-5-5-5-5-5-5-5-5-5-5-5-5----------
E-5-5-5-5-5-5-5-5-5-5-5-5-5-5-5-5----------------------------------5-5-5-5-

---------------------------------------------------------|
---------------------------------------------------------|
-------------------------5-5-5-5-5-5-5-5-----------------|
-5-5-5-5-5-5-5-5-5-5-5-5-----------------5-5-5-5-5-5-5-5-|

Bridge
G-----------------|
D-----------------|
A-5-5-5-5-5-5-5-5-|x4
E-----------------|

Chorus x 6 and fade out
Suggest correction
Give kudos to tab author, rate the tab!
1 2 3 4 5
comments
print report bad tab
guest
You may want to rate the tab now too:
select rating
Wanna post a correction for this tab? Suggest correction