Oops, an error
Loading. Please wait.

Journey To The Centre Of The Mind Bass Tab

28 views 1 this week
no commentswrite comment
1 2 3 4 5
3 more votes to show rating
add to favorites
launch autoscroll
font size
0
reset
guitar tuner
Autoscroll
slow
fast
+/-
esc
set tempo
stop
Help us to improve Ultimate-Guitar.com Take our survey!
×
Author
Difficulty
novice
------------------------------------------------------------------------------
            Journey To The Centre Of The Mind - The Ramones
------------------------------------------------------------------------------

Tabbed by: ChrisT

From the Album: The Chrysalis Years (2002)

Tuning: Standard

Intro                                                          Repeat x4
G|----------------------------------------------------------------------|
D|o--------------------------------------4-4-5-7-5-4-----4-4-5-7-5-4---o|
A|o------6-6-7-9-7-6-----6-6-7-9-7-6-5-5-------------5-5---------------o|
E|---7-7-------------7-7------------------------------------------------|

G|--------------------------------------|
D|--------------------------------------|
A|-------6-6-7-9-7-6--------------------|
E|---7-7-------------2-2-2-2-2-2-2-2----|

Verse
G|----------------------------------------------------------------------|
D|----------------------------------------------------------------------|
A|----------------------------------------------------------------------|
E|---2-2-2-2-2-2-2-2-2-2-2-2-2-2-2-2-2-2-2-2-2-2-2-2-2-2-2-2-2-2-2-2----|

G|----------------------------------------------------------------------|
D|----------------------------------------------------------------------|
A|----------------------------------------------------------------------|
E|---0-0-0-0-0-0-0-0-0-0-0-0-0-0-0-0-2-2-2-2-2-2-2-2-2-2-2-2-2-2-2-2----|

Chorus
G|--------------------------------------------------------------|
D|--------------------------------------------------------------|
A|---2---2-2-2-2-2-2-5-----5-4-3-2---2-2-2-2-2-2-5-----5-4-3----|
E|--------------------------------------------------------------|

G|--------------------------------------------------|
D|--------------------------------------------------|
A|---2---2-2-2-2-2-2-5-----5-4-3-4---4-4-4-4-4-4----|
E|--------------------------------------------------|

Verse
G|----------------------------------------------------------------------|
D|----------------------------------------------------------------------|
A|----------------------------------------------------------------------|
E|---2-2-2-2-2-2-2-2-2-2-2-2-2-2-2-2-2-2-2-2-2-2-2-2-2-2-2-2-2-2-2-2----|

G|----------------------------------------------------------------------|
D|----------------------------------------------------------------------|
A|----------------------------------------------------------------------|
E|---0-0-0-0-0-0-0-0-0-0-0-0-0-0-0-0-2-2-2-2-2-2-2-2-2-2-2-2-2-2-2-2----|

Chorus
G|--------------------------------------------------------------|
D|--------------------------------------------------------------|
A|---2---2-2-2-2-2-2-5-----5-4-3-2---2-2-2-2-2-2-5-----5-4-3----|
E|--------------------------------------------------------------|

G|--------------------------------------------------|
D|--------------------------------------------------|
A|---2---2-2-2-2-2-2-5-----5-4-3-4---4-4-4-4-4-4----|
E|--------------------------------------------------|

Verse
G|----------------------------------------------------------------------|
D|----------------------------------------------------------------------|
A|----------------------------------------------------------------------|
E|---2-2-2-2-2-2-2-2-2-2-2-2-2-2-2-2-2-2-2-2-2-2-2-2-2-2-2-2-2-2-2-2----|

G|----------------------------------------------------------------------|
D|----------------------------------------------------------------------|
A|---6-6-6-6-6-6-6-6---------------------------------6-6-6-6-6-6-6-6----|
E|-------------------7-7-7-7-7-7-7-7-4-4-4-4-4-4-4-4--------------------|

G|----------------------------------------------------------------------|
D|----------------------------------------------------------------------|
A|---6-6-6-6-6-6-6-6---------------------------------4-4-4-4-4-4-4-4----|
E|-------------------7-7-7-7-7-7-7-7-4-4-4-4-4-4-4-4--------------------|

G|-----------------------------------------------------|
D|-----------------------------------------------------|
A|---4-4-4-4-4-4-4-4-4-4-4-4-4-4-4-4-4-----------------|
E|-----------------------------------------------------|

Guitar Solo                                                    Repeat x4
G|----------------------------------------------------------------------|
D|o--------------------------------------4-4-5-7-5-4-----4-4-5-7-5-4---o|
A|o------6-6-7-9-7-6-----6-6-7-9-7-6-5-5-------------5-5---------------o|
E|---7-7-------------7-7------------------------------------------------|

G|--------------------------------------|
D|--------------------------------------|
A|-------6-6-7-9-7-6--------------------|
E|---7-7-------------2-2-2-2-2-2-2-2----|

Bass Solo (w/Dist.)
G|--------------------------------------------------------------------|
D|--------------------------------------------------------------------|
A|-------------6--7--9-9-9-9-9----------------6--7--9-9-9-9-9---------|
E|---7-7-7-7-7-----------------9--8-7-7-7-7-7-----------------9--8----|

G|--------------------------------------------------------------------|
D|--------------------------------------------------------------------|
A|-------------6--7--9-9-9-9-9----------------6--7--9-----------14\---|
E|---7-7-7-7-7-----------------9--8-7-7-7-7-7-------------------------|

Chorus
G|--------------------------------------------------------------|
D|--------------------------------------------------------------|
A|---2---2-2-2-2-2-2-5-----5-4-3-2---2-2-2-2-2-2-5-----5-4-3----|
E|--------------------------------------------------------------|

G|--------------------------------------------------|
D|--------------------------------------------------|
A|---2---2-2-2-2-2-2-5-----5-4-3-4---4-4-4-4-4-4----|
E|--------------------------------------------------|

G|----------------------------------------------------------------------|
D|----------------------------------------------------------------------|
A|----------------------------------------------------------------------|
E|---2-2-2-2-2-2-2-2-2-2-2-2-2-2-2-2-2-2-2-2-2-2-2-2-2-2-2-2-2-2-2-2----|

G|----------------------------------------------------------------------|
D|----------------------------------------------------------------------|
A|----------------------------------------------------------------------|
E|---0-0-0-0-0-0-0-0-0-0-0-0-0-0-0-0-2-2-2-2-2-2-2-2-2-2-2-2-2-2-2-2----|

G|----------------------------------------------------------------------|
D|----------------------------------------------------------------------|
A|---7-7-7-7-7-7-7-7-7-7-7-7-7-7-7-7------------------------------------|
E|-----------------------------------2-2-2-2-2-2-2-2-2-2-2-2-2-2-2-2----|

G|--------------------------------------|
D|--------------------------------------|
A|--------------------------------------|
E|---2-2-2-2-2-2-2-2-2-2-2-2-2-2-2-2----|

Guitar Solo                                                    Repeat x4
G|----------------------------------------------------------------------|
D|o--------------------------------------4-4-5-7-5-4-----4-4-5-7-5-4---o|
A|o------6-6-7-9-7-6-----6-6-7-9-7-6-5-5-------------5-5---------------o|
E|---7-7-------------7-7------------------------------------------------|

G|----------------------------------------------------------------------|
D|----------------------------------------------------------------------|
A|-------6-6-7-9-7-6-----6-6-7-9-7-6-4-4-4-4-4-4-4-4-4-4-4-4-4-4-4-4----|
E|---7-7-------------7-7------------------------------------------------|

G|------------------------|
D|------------------------|
A|---4-4-4-4-4-4-4-4-4----|
E|------------------------|

Suggest correction
Give kudos to tab author, rate the tab!
1 2 3 4 5
comments
print report bad tab
guest
You may want to rate the tab now too:
select rating
Wanna post a correction for this tab? Suggest correction