Oops, an error
Loading. Please wait.

Judy Is A Punk Bass Tab

version 1
version 1

Whole song

Interactive

8,333 views 12 this week
1 commentread comment
1 2 3 4 5
x 5
add to favorites
launch autoscroll
font size
0
reset
guitar tuner
Autoscroll
slow
fast
+/-
esc
set tempo
stop
Help us to improve Ultimate-Guitar.com Take our survey!
×
Author
Difficulty
novice
The Ramones
Judy Is A Punk

rik_verpoorten@hotmail.com

Tempo: 180 BPM


Intro
     E E E E E E E E
G||-------------------|
D||*-----------------*|
A||*-6-6-6-6-6-6-6-6-*|
E||-------------------|
                     2x

Verse
     E E E E E E E E     E E E E E E E E     E E E E E E E E   E E E E E E E E
G||-------------------|-------------------|-----------------|-------------------|
D||*-----------------*|*-8-8-8-8-8-8-8-8-*|*-6-6-6-6-6-6-6-6-|-8-8-8-8-8-8-8-8-*|
A||*-6-6-6-6-6-6-6-6-*|*-----------------*|*-----------------|-----------------*|
E||-------------------|-------------------|-----------------|-------------------|
                     3x                  2x                                    2x

     E E E E E E E E   E E E E E E E E
G||------------------|------------------|
D||*-----------------|-8-8-8-8-8-8-8-8-*|
A||*-6-6-6-6-6-6-6-6-|-----------------*|
E||------------------|------------------|
                                       4x

Pre-verse
     E E E E E E E E
G||-------------------|
D||*-8-8-8-8-8-8-8-8-*|
A||*-----------------*|
E||-------------------|
                     2x

Verse

Break
     E E E E E E E E   E E E E E E E E
G||------------------|------------------|
D||*-----------------|-8-8-8-8-8-8-8-8-*|
A||*-6-6-6-6-6-6-6-6-|-----------------*|
E||------------------|------------------|
                                       4x

Verse (Replace last measure with:      W        )
                                   G||--------|
                                   D||-8------|
                                   A||--------|
                                   E||--------|


Suggest correction
comments
print report bad tab
1 comment total.
0 reply
misfitsphreek 72 Feb 11, 2007 11:10 AM

Good job.

guest
You may want to rate the tab now too:
select rating
Wanna post a correction for this tab? Suggest correction