Oops, an error
Loading. Please wait.

Learn To Listen Bass Tab

13 views 1 this week
no commentswrite comment
1 2 3 4 5
3 more votes to show rating
add to favorites
launch autoscroll
font size
0
reset
guitar tuner
Autoscroll
slow
fast
+/-
esc
set tempo
stop
Help us to improve Ultimate-Guitar.com Take our survey!
×
Author
Difficulty
novice
------------------------------------------------------------------------------
                       Learn To Listen - The Ramones
------------------------------------------------------------------------------

Tabbed by: ChrisT

From the Album: The Chrysalis Years (2002)

Tuning: Standard

Intro
G|----------------------------------------------------------------|
D|o--------------------------------------------------------------o|
A|o----------------------------------------------5-3-------------o|
E|---0-0-3-5---5-5--0-0-3-5---5-5--0-0-3-5---5-5-----3-5---5-5----|

Chorus
G|----------------------------------------------------------------|
D|o--------------------------------------------------------------o|
A|o----------------------------------------------5-3-------------o|
E|---0-0-3-5---5-5--0-0-3-5---5-5--0-0-3-5---5-5-----3-5---5-5----|

Verse
G|-----------------------------------------------------------------|
D|o---------------------------------------------------------------o|
A|o--5h7--7-7-7-7-7-5h7--7-7-7-7-7-5h7--7-7-7-7-7-----3h5-5-5-5---o|
E|------------------------------------------------3h5--------------|

G|--------------------------------------|
D|--------------------------------------|
A|--------------------------------------|
E|---5-5-5-5-5-5-5-5-5-5-5-5-5-5-5-5----|

Chorus
G|----------------------------------------------------------------|
D|o--------------------------------------------------------------o|
A|o----------------------------------------------5-3-------------o|
E|---0-0-3-5---5-5--0-0-3-5---5-5--0-0-3-5---5-5-----3-5---5-5----|

Verse
G|-----------------------------------------------------------------|
D|o---------------------------------------------------------------o|
A|o--5h7--7-7-7-7-7-5h7--7-7-7-7-7-5h7--7-7-7-7-7-----3h5-5-5-5---o|
E|------------------------------------------------3h5--------------|

G|--------------------------------------|
D|--------------------------------------|
A|--------------------------------------|
E|---5-5-5-5-5-5-5-5-5-5-5-5-5-5-5-5----|

Guitar Solo
G|----------------------------------------------------------------|
D|o--------------------------------------------------------------o|
A|o----------------------------------------------5-3-------------o|
E|---0-0-3-5---5-5--0-0-3-5---5-5--0-0-3-5---5-5-----3-5---5-5----|

Verse
G|-----------------------------------------------------------------|
D|o---------------------------------------------------------------o|
A|o--5h7--7-7-7-7-7-5h7--7-7-7-7-7-5h7--7-7-7-7-7-----3h5-5-5-5---o|
E|------------------------------------------------3h5--------------|

G|--------------------------------------|
D|--------------------------------------|
A|--------------------------------------|
E|---5-5-5-5-5-5-5-5-5-5-5-5-5-5-5-5----|

Chorus                                                   Repeat x3
G|----------------------------------------------------------------|
D|o--------------------------------------------------------------o|
A|o----------------------------------------------5-3-------------o|
E|---0-0-3-5---5-5--0-0-3-5---5-5--0-0-3-5---5-5-----3-5---5-5----|

G|----------------------------------------------------------------|
D|----------------------------------------------------------------|
A|-----------------------------------------------5-3--------------|
E|---0-0-3-5---5-5--0-0-3-5---5-5--0-0-3-5---5-5-----3-5----------|

Suggest correction
Give kudos to tab author, rate the tab!
1 2 3 4 5
comments
print report bad tab
guest
You may want to rate the tab now too:
select rating
Wanna post a correction for this tab? Suggest correction