Oops, an error
Loading. Please wait.

Leave Home Bass Tab

2,859 views 9 this week
2 commentsread comments
1 2 3 4 5
please rate
add to favorites
launch autoscroll
font size
0
reset
guitar tuner
Autoscroll
slow
fast
+/-
esc
set tempo
stop
Help us to improve Ultimate-Guitar.com Take our survey!
×
Author
1.Glad To See You Go

Intro
G-------------------------------------------------|
D-------------------------------------------------|
A-5-5-5-5-5-5-------------5-5-5-5-5-5-------------|
E-------------5-5-5-5-5-5-------------5-5-5-5-5-5-|

Verse
G-------------------------------------------------|
D-------------------------------------------------|
A-5-5-5-5-5-5-------------5-5-5-5-5-5-------------|
E-------------5-5-5-5-5-5-------------5-5-5-5-5-5-|

G-------------------------------------------------|
D-------------------------------------------------|
A-------------------------------------------------|
E-3-3-3-3-3-3-3-3-3-3-3-3-5-5-5-5-5-5-5-5-5-5-5-5-|

G-------------------------------------------------|
D-------------------------------------------------|
A-5-5-5-5-5-5-------------5-5-5-5-5-5-------------|
E-------------5-5-5-5-5-5-------------5-5-5-5-5-5-|

G-------------------------------------------------|
D-------------------------------------------------|
A-------------------------------------------------|
E-3-3-3-3-3-3-3-3-3-3-3-3-5-5-5-5-5-5-5-5-5-5-5-5-|

Chorus                  x3
G-------------------------|-------------------------|
D-------------------------|-------------------------|
A-5-5-5-5-5-5-------------|-------------------------|
E-------------3-3-3-3-3-3-|-5-5-5-5-5-5-5-5-5-5-5-5-|

                        x3 
G-------------------------|-------------------------|
D-------------------------|-------------------------|
A-5-5-5-5-5-5-------------|-------------------------|
E-------------3-3-3-3-3-3-|-5-5-5-5-5-5-5-5-5-5-5-5-|

Bridge                                          x2
G-------------------------------------------------|
D-------------------------------------------------|
A-3-3-3-3-3-3-5-5-5-5-5-5-----5-----5-----5-----5-|
E-------------------------5-5---5-5---5-5---5-5---|

G-------------------------------------------------|
D-------------------------------------------------|
A-3-3-3-3-3-3-------------------------------------|
E-------------3-3-3-3-3-3-7-7-7-7-7-7-7-7-7-7-7-7-|

Verse 2
G-------------------------------------------------|
D-------------------------------------------------|
A-7-7-7-7-7-7-------------7-7-7-7-7-7-------------|
E-------------7-7-7-7-7-7-------------7-7-7-7-7-7-|

G-------------------------------------------------|
D-------------------------------------------------|
A-------------------------------------------------|
E-5-5-5-5-5-5-5-5-5-5-5-5-7-7-7-7-7-7-7-7-7-7-7-7-|

G-------------------------------------------------|
D-------------------------------------------------|
A-7-7-7-7-7-7-------------7-7-7-7-7-7-------------|
E-------------7-7-7-7-7-7-------------7-7-7-7-7-7-|

G-------------------------------------------------|
D-------------------------------------------------|
A-------------------------------------------------|
E-5-5-5-5-5-5-5-5-5-5-5-5-7-7-7-7-7-7-7-7-7-7-7-7-|

Chorus 2                x3
G-------------------------|-------------------------|
D-------------------------|-------------------------|
A-7-7-7-7-7-7-------------|-------------------------|
E-------------5-5-5-5-5-5-|-7-7-7-7-7-7-7-7-7-7-7-7-|

                        x3
G-------------------------|---------|
D-------------------------|---------|
A-7-7-7-7-7-7-------------|---------|
E-------------5-5-5-5-5-5-|-7-------|

Outro                  x11
G-------------------------|
D-------------------------|
A-7-7-7-7-7-7-------------|
E-------------5-5-5-5-5-5-|
****************************************************************************

2. Gimme Shock Treatment

Intro               x4
G---------------------|  
D---------------------|  
A-7-7-7-7-7-7-7-------|
E---------------5--7--|  

Verse                           x4
G---------------------------------|
D---------------------------------|
A-----------------7-7-7-7-7-7-7-7-|
E-7-7-7-7-5-5-5-5-----------------|

Bridge          x2
G-----------------|  
D-----------------|  
A-----7-7-----9-9-|
E-7-7-----9-9-----| 

Verse                           x4
G---------------------------------|
D---------------------------------|
A-----------------7-7-7-7-7-7-7-7-|
E-7-7-7-7-5-5-5-5-----------------|

Chorus          x4
G-----------------|
D-----------------|
A-----------------|
E-3-3-3-3-5-5-5-5-|

Intro               x4
G---------------------|  
D---------------------|  
A-7-7-7-7-7-7-7-------|
E---------------5--7--| 

Verse                           x4
G---------------------------------|
D---------------------------------|
A-----------------7-7-7-7-7-7-7-7-|
E-7-7-7-7-5-5-5-5-----------------|

Bridge          x2
G-----------------|  
D-----------------|  
A-----7-7-----9-9-|
E-7-7-----9-9-----| 

Verse                           x4
G---------------------------------|
D---------------------------------|
A-----------------7-7-7-7-7-7-7-7-|
E-7-7-7-7-5-5-5-5-----------------|

Chorus          x8
G-----------------|
D-----------------|
A-----------------|
E-3-3-3-3-5-5-5-5-|
****************************************************************************

3. I Remember You

Intro                   x3
G-------------------------|-------------------------------------------|
D-------------------------|-------------------------------------------|
A-7-7---------------------|-7-7---------------------------------------|
E-----9-9-7-7-7-7-7-7-7-7-|-----9-9-7-7-7-7-7-7-7-7-7-7-7-7-7-7-7-7-7-|

Verse                             
G-----------------------------------------------------------------|
D-----------------------------------------------------------------|
A-4-4-4-4-4-4-4-4-----------------5-5-5-5-5-5-5-5-----------------|
E-----------------7-7-7-7-7-7-7-7-----------------7-7-7-7-7-7-7-7-|

G-----------------------------------------------------------------|
D-----------------------------------------------------------------|
A-4-4-4-4-4-4-4-4-----------------5-5-5-5-5-5-5-5-----------------|
E-----------------7-7-7-7-7-7-7-7-----------------7-7-7-7-7-7-7-7-|

G---------------------------------|
D---------------------------------|
A-5-5-5-5-5-5-5-5-----------------|
E-----------------7-7-7-7-7-7-7-7-|

Chorus                  x3
G-------------------------|
D-------------------------|
A-7-7---------------------|
E-----9-9-7-7-7-7-7-7-7-7-|

Verse 2                            
G-----------------------------------------------------------------|
D-----------------------------------------------------------------|
A-4-4-4-4-4-4-4-4-----------------5-5-5-5-5-5-5-5-----------------|
E-----------------7-7-7-7-7-7-7-7-----------------7-7-7-7-7-7-7-7-|

G-----------------------------------------------------------------|
D-----------------------------------------------------------------|
A-4-4-4-4-4-4-4-4-----------------5-5-5-5-5-5-5-5-----------------|
E-----------------7-7-7-7-7-7-7-7-----------------7-7-7-7-7-7-7-7-|

G---------------------------------|
D---------------------------------|
A-5-5-5-5-5-5-5-5-----------------|
E-----------------7-7-7-7-7-7-7-7-|

Chorus                  x2
G-------------------------|-----------------------------------------|
D-------------------------|-----------------------------------------|
A-7-7---------------------|-7-7-------------------------------------|
E-----9-9-7-7-7-7-7-7-7-7-|-----9-9-7-7-7-7-7-7-7-7-7-7-7-7-7-7-7-7-|

Bridge
G-----------------------------------------------------------------|
D-----------------------------------------------------------------|
A-4-4-4-4-4-4-4-4-4-4-4-4-4-4-4-4---------------------------------|
E---------------------------------7-7-7-7-7-7-7-7-7-7-7-7-7-7-7-7-|

G-----------------------------------------------------------------|
D-----------------------------------------------------------------|
A-4-4-4-4-4-4-4-4-4-4-4-4-4-4-4-4---------------------------------|
E---------------------------------7-7-7-7-7-7-7-7-7-7-7-7-7-7-7-7-|

Chorus                  x3
G-------------------------|
D-------------------------|
A-7-7---------------------|
E-----9-9-7-7-7-7-7-7-7-7-|

Verse                             
G-----------------------------------------------------------------|
D-----------------------------------------------------------------|
A-4-4-4-4-4-4-4-4-----------------5-5-5-5-5-5-5-5-----------------|
E-----------------7-7-7-7-7-7-7-7-----------------7-7-7-7-7-7-7-7-|

G-----------------------------------------------------------------|
D-----------------------------------------------------------------|
A-4-4-4-4-4-4-4-4-----------------5-5-5-5-5-5-5-5-----------------|
E-----------------7-7-7-7-7-7-7-7-----------------7-7-7-7-7-7-7-7-|

G---------------------------------|
D---------------------------------|
A-5-5-5-5-5-5-5-5-----------------|
E-----------------7-7-7-7-7-7-7-7-|

Chorus                  x2
G-------------------------|-----------------------------------------|
D-------------------------|-----------------------------------------|
A-7-7---------------------|-7-7-------------------------------------|
E-----9-9-7-7-7-7-7-7-7-7-|-----9-9-7-7-7-7-7-7-7-7-7-7-7-7-7-7-7-7-|

Outro                           x3
G---------------------------------|-------------------|
D---------------------------------|-------------------|
A-4-4-4-4-4-4-4-4-----------------|-4-----------------|
E-----------------7-7-7-7-7-7-7-7-|-------------------|
****************************************************************************

4.Oh, Oh I Love Her So

Intro
G-----------------------------------------------------------------|
D-----------------------------------------------------------------|
A-0-0-0-0-0-0-0-0-----------------0-0-0-0-0-0-0-0-----------------|
E-----------------2-2-2-2-2-2-2-2-----------------2-2-2-2-2-2-2-2-|

Verse                           x2                              x2
G---------------------------------|-------------------------------|
D---------------------------------|-------------------------------|
A-0-0-0-0-0-0-0-0-----------------|-5-5-5-5-5-5-5-5-7-7-7-7-7-7-7-|
E-----------------2-2-2-2-2-2-2-2-|-------------------------------|

                                x2                              x2
G---------------------------------|-------------------------------|
D---------------------------------|-------------------------------|
A-0-0-0-0-0-0-0-0-----------------|-5-5-5-5-5-5-5-5-7-7-7-7-7-7-7-|
E-----------------2-2-2-2-2-2-2-2-|-------------------------------|

Interlude
G---------------------------------|
D---------------------------------|
A---------------------------------|
E-2-2-2-2-2-2-2-2-0-0-0-0-0-0-0-0-|

Chorus                          x4
G---------------------------------|
D---------------------------------|
A-----------------5-5-5-5-7-7-7-7-|
E-5-5-5-5-5-5-5-5-----------------|
                                x3
G---------------------------------|----------------|
D---------------------------------|----------------|
A-----------------5-5-5-5-7-7-7-7-|----5-5---------|
E-5-5-5-5-5-5-5-5-----------------|-5-5----5-5-5-5-|

Bridge
G-----------------------------------------------------------------|
D-----------------------------------------------------------------|
A-5-5-5-5-5-5-5-5-----------------5-5-5-5-5-5-5-5-7-7-7-7-7-7-7-7-|
E-----------------5-5-5-5-5-5-5-5---------------------------------|

Verse                           x2                              x2
G---------------------------------|-------------------------------|
D---------------------------------|-------------------------------|
A-0-0-0-0-0-0-0-0-----------------|-5-5-5-5-5-5-5-5-7-7-7-7-7-7-7-|
E-----------------2-2-2-2-2-2-2-2-|-------------------------------|

                                x2                              x2
G---------------------------------|-------------------------------|
D---------------------------------|-------------------------------|
A-0-0-0-0-0-0-0-0-----------------|-5-5-5-5-5-5-5-5-7-7-7-7-7-7-7-|
E-----------------2-2-2-2-2-2-2-2-|-------------------------------|

Interlude
G---------------------------------|
D---------------------------------|
A---------------------------------|
E-2-2-2-2-2-2-2-2-0-0-0-0-0-0-0-0-|

Chorus                          x4
G---------------------------------|
D---------------------------------|
A-----------------5-5-5-5-7-7-7-7-|
E-5-5-5-5-5-5-5-5-----------------|
                                x3
G---------------------------------|----------------|
D---------------------------------|----------------|
A-----------------5-5-5-5-7-7-7-7-|----5-5---------|
E-5-5-5-5-5-5-5-5-----------------|-5-5----5-5-5-5-|

Outro                           x3
G---------------------------------|------------|----------|
D---------------------------------|------------|-7--------|
A-----------------5-5-5-5-7-7-7-7-|----5-5-----|----------|
E-5-5-5-5-5-5-5-5-----------------|-5-5----5---|----------|
****************************************************************************

5.Sheena Is A Punk-Rocker

Intro
G----------|----------|----------|----------|
D----------|----------|----------|----------|
A-2/3-3--3-|-2/3-3--3-|-2/3-3--3-|-2/3-3--3-|
E----------|----------|----------|----------|

Verse
G-----------------------------------------------------------------|
D-----------------------------------------------------------------|
A-3-3-3-3-3-3-3-3-3-3-3-3-3-3-3-3-----------------3-3-3-3-3-3-3-3-|
E---------------------------------3-3-3-3-3-3-3-3-----------------|
                                
G-----------------------------------------------------------------|
D-----------------------------------------------------------------|
A-0-0-0-0-0-0-0-0-----------------0-0-0-0-0-0-0-0-----------------|
E-----------------1-1-1-1-1-1-1-1-----------------1-1-1-1-1-1-1-1-|

G-----------------------------------------------------------------|
D-----------------------------------------------------------------|
A-3-3-3-3-3-3-3-3-3-3-3-3-3-3-3-3---------------------------------|
E---------------------------------3-3-3-3-3-3-3-3-3-3-3-3-3-3-3-3-|

G-----------------|
D-----------------|
A-----------------|
E-3-3-3-3-3-3-3-3-|

Chorus                          x7
G---------------------------------|-------------------------------|
D-----------------3-3-3-3-5-5-5-5-|-------------------------------|
A-3-3-3-3-3-3-3-3-----------------|-3-3-3-3-3-3-3-3-3-3-3-3-3-3-3-|
E---------------------------------|-------------------------------|

Bridge ("...punk punk, punk rocker...")
G-----------------------------------------------------------------|
D-----------------------------------------------------------------|
A---------------------------------3-3-3-3-3-3-3-3-3-3-3-3-3-3-3-3-|
E-1-1-1-1-1-1-1-1-1-1-1-1-1-1-1-1---------------------------------|

G-----------------------------------------------------------------|
D-----------------------------------------------------------------|
A---------------------------------1-1-1-1-1-1-1-1-1-1-1-1-1-1-1-1-|
E-3-3-3-3-3-3-3-3-3-3-3-3-3-3-3-3---------------------------------|

Intro
G----------|----------|----------|----------|
D----------|----------|----------|----------|
A-2/3-3--3-|-2/3-3--3-|-2/3-3--3-|-2/3-3--3-|
E----------|----------|----------|----------|

Verse
G-----------------------------------------------------------------|
D-----------------------------------------------------------------|
A-3-3-3-3-3-3-3-3-3-3-3-3-3-3-3-3-----------------3-3-3-3-3-3-3-3-|
E---------------------------------3-3-3-3-3-3-3-3-----------------|
                                
G-----------------------------------------------------------------|
D-----------------------------------------------------------------|
A-0-0-0-0-0-0-0-0-----------------0-0-0-0-0-0-0-0-----------------|
E-----------------1-1-1-1-1-1-1-1-----------------1-1-1-1-1-1-1-1-|

G-----------------------------------------------------------------|
D-----------------------------------------------------------------|
A-3-3-3-3-3-3-3-3-3-3-3-3-3-3-3-3---------------------------------|
E---------------------------------3-3-3-3-3-3-3-3-3-3-3-3-3-3-3-3-|

G-----------------|
D-----------------|
A-----------------|
E-3-3-3-3-3-3-3-3-|

Chorus                          x7
G---------------------------------|-------------------------------|
D-----------------3-3-3-3-5-5-5-5-|-------------------------------|
A-3-3-3-3-3-3-3-3-----------------|-3-3-3-3-3-3-3-3-3-3-3-3-3-3-3-|
E---------------------------------|-------------------------------|

Bridge ("...punk punk, punk rocker...")
G-----------------------------------------------------------------|
D-----------------------------------------------------------------|
A---------------------------------3-3-3-3-3-3-3-3-3-3-3-3-3-3-3-3-|
E-1-1-1-1-1-1-1-1-1-1-1-1-1-1-1-1---------------------------------|

G-----------------------------------------------------------------|
D-----------------------------------------------------------------|
A---------------------------------1-1-1-1-1-1-1-1-1-1-1-1-1-1-1-1-|
E-3-3-3-3-3-3-3-3-3-3-3-3-3-3-3-3---------------------------------|

Intro
G----------|----------|----------|----------|
D----------|----------|----------|----------|
A-2/3-3--3-|-2/3-3--3-|-2/3-3--3-|-2/3-3--3-|
E----------|----------|----------|----------|

Outro          repeat and fade out
G---------------------------------|
D-----------------3-3-3-3-5-5-5-5-|
A-3-3-3-3-3-3-3-3-----------------|
E---------------------------------|
****************************************************************************

6.Suzy Is A Head banger

Intro                                                   x2
G-----------------------------------------------------------------|
D-----------------------------------------------------------------|
A-----------------3-3-3-3-3-3-3-3-5-5-5-5-3-3-3-3-----------------|
E-3-3-3-3-3-3-3-3---------------------------------3-3-3-3-3-3-3-3-|

Interlude                  x3
G----------------------------|
D----------------------------|
A-4/5-5-5-4/5-5-5-4/5-5-5--5-|
E----------------------------|

Verse                                                           x2
G-----------------------------------------------------------------|
D-----------------------------------------------------------------|
A-----------------3-3-3-3-3-3-3-3-5-5-5-5-3-3-3-3-----------------|
E-3-3-3-3-3-3-3-3---------------------------------3-3-3-3-3-3-3-3-|
                                                                x2
G-----------------------------------------------------------------|
D-----------------------------------------------------------------|
A-5-5-5-5-3-3-3-3-----------------5-5-5-5-3-3-3-3-----------------|
E-----------------3-3-3-3-3-3-3-3-----------------3-3-3-3-3-3-3-3-|

Chours
G-----------------------------------------------------------------|
D-----------------------------------------------------------------|
A-3-3-3-3-3-3-3-3-3-3-3-3-3-3-3-3---------------------------------|
E---------------------------------3-3-3-3-3-3-3-3-3-3-3-3-3-3-3-3-|
                                                                  x2
G---------------------------------|---------------------------------|
D---------------------------------|---------------------------------|
A-3-3-3-3-3-3-3-3-3-3-3-3-3-3-3-3-|-5-5-5-5-3-3-3-3-----------------|
E---------------------------------|-----------------3-3-3-3-3-3-3-3-|

Interlude                  x3
G----------------------------|
D----------------------------|
A-4/5-5-5-4/5-5-5-4/5-5-5--5-|
E----------------------------|

Verse                                                           x2
G-----------------------------------------------------------------|
D-----------------------------------------------------------------|
A-----------------3-3-3-3-3-3-3-3-5-5-5-5-3-3-3-3-----------------|
E-3-3-3-3-3-3-3-3---------------------------------3-3-3-3-3-3-3-3-|
                                                                x2
G-----------------------------------------------------------------|
D-----------------------------------------------------------------|
A-5-5-5-5-3-3-3-3-----------------5-5-5-5-3-3-3-3-----------------|
E-----------------3-3-3-3-3-3-3-3-----------------3-3-3-3-3-3-3-3-|

Chours
G-----------------------------------------------------------------|
D-----------------------------------------------------------------|
A-3-3-3-3-3-3-3-3-3-3-3-3-3-3-3-3---------------------------------|
E---------------------------------3-3-3-3-3-3-3-3-3-3-3-3-3-3-3-3-|
                                                                  x2
G---------------------------------|---------------------------------|
D---------------------------------|---------------------------------|
A-3-3-3-3-3-3-3-3-3-3-3-3-3-3-3-3-|-5-5-5-5-3-3-3-3-----------------|
E---------------------------------|-----------------3-3-3-3-3-3-3-3-|

Interlude                  x3
G----------------------------|
D----------------------------|
A-4/5-5-5-4/5-5-5-4/5-5-5--5-|
E----------------------------|

Outro                           x3                                x3
G---------------------------------|---------------------------------|---|
D---------------------------------|---------------------------------|---|
A---------3-3-3-3-5-5-5-5-5-5-5-5-|-5-5-5-5-5-5-5-5-5-5-5-5-5-5-5-5-|---|
E-3-3-3-3-------------------------|---------------------------------|-3-|
****************************************************************************

7.Pinhead

Main                        x4
G-----------------------------|
D-----------------------------|
A------------------7--9-------|
E-7/9-9-9-9-9-9-9--------7--9-|

Verse                       x4
G-----------------------------|
D-----------------------------|
A------------------------5--7-|
E-5/7-7-7-7-7-7-7--5--7-------|

Interlude
G---------------------------------|
D---------------------------------|
A---------------------------------|
E-7-7-7-7-7-7-7-7-7-7-7-7-7-7-7-7-|

Main                        x4
G-----------------------------|
D-----------------------------|
A------------------7--9-------|
E-7/9-9-9-9-9-9-9--------7--9-|

Verse                       x4
G-----------------------------|
D-----------------------------|
A------------------------5--7-|
E-5/7-7-7-7-7-7-7--5--7-------|

Interlude
G---------------------------------|
D---------------------------------|
A---------------------------------|
E-7-7-7-7-7-7-7-7-7-7-7-7-7-7-7-7-|

Main                        x4
G-----------------------------|
D-----------------------------|
A------------------7--9-------|
E-7/9-9-9-9-9-9-9--------7--9-|

Bridge                           
G----------------------------------|----------------------------------|
D----------------------------------|----------------------------------|
A---------------5--0-0-0-0-0-0-0-7-|---------------5--0-0-0-0-0-0-0-7-|
E-7-7-7-7-7-7-7--------------------|-7-7-7-7-7-7-7--------------------|

G-----------------------------|-----------------------------|
D-----------------------------|-----------------------------|
A-----------------------------|------------------------5--7-|
E-----------------------------|-5/7-7-7-7-7-7-7--5--7-------|

G-----------------------------|-----------------------------|
D-----------------------------|-----------------------------|
A-----------------------------|------------------------5--7-|
E-----------------------------|-5/7-7-7-7-7-7-7--5--7-------|

Interlude
G---------------------------------|
D---------------------------------|
A---------------------------------|
E-7-7-7-7-7-7-7-7-7-7-7-7-7-7-7-7-|

Main                        x4
G-----------------------------|
D-----------------------------|
A------------------7--9-------|
E-7/9-9-9-9-9-9-9--------7--9-|

Interlude
G---------------------------------|
D---------------------------------|
A---------------------------------|
E-7-7-7-7-7-7-7-7-7-7-7-7-7-7-7-7-|

Main                        x4
G-----------------------------|
D-----------------------------|
A------------------7--9-------|
E-7/9-9-9-9-9-9-9--------7--9-|

Verse                       x4
G-----------------------------|
D-----------------------------|
A------------------------5--7-|
E-5/7-7-7-7-7-7-7--5--7-------|

Outro (repeat till end)
G----------------------------------|----------------------------------|
D----------------------------------|----------------------------------|
A---------------5--0-0-0-0-0-0-0-7-|---------------5--0-0-0-0-0-0-0-7-|
E-7-7-7-7-7-7-7--------------------|-7-7-7-7-7-7-7--------------------|

****************************************************************************

8. Now I Wanna Be A Good Boy

Intro                   x3
G-------------------------|
D-------------------------|
A------3-3--5-5-----------|
E-5-5------------3-3--3-3-|

Verse                           x4
G---------------------------------|
D---------------------------------|
A---------3-3-3-3-5-5-5-5-5-5-5-5-|
E-5-5-5-5-------------------------|

Interlude                       x2
G---------------------------------|
D---------------------------------|
A-0-0-0-0-2-2-2-2---------5-5-5-5-|
E-----------------0-0-0-0---------|

Verse                           x4
G---------------------------------|
D---------------------------------|
A---------3-3-3-3-5-5-5-5-5-5-5-5-|
E-5-5-5-5-------------------------|

Bridge                          x4
G---------------------------------|--------------------------------|
D---------------------------------|--------------------------------|
A-0-0-0-0-7-7-7-7-2-2-2-2-9-9-9-9-|----*Drums*---------------------|
E---------------------------------|--------------------------------|

G-------------------------|--------------------------------|
D-------------------------|--------------------------------|
A-5-5---5-5---5-5---5-5---|--*Drums*-----------------------|
E-----5-----5-----5-----5-|--------------------------------|
                                                           x4
G-------------------------|----------------------------------|
D-------------------------|----------------------------------|
A-5-5---5-5---5-5---5-5---|-0-0-0-0-0-0-0-0-0-0-0-0-0-0--5---|
E-----5-----5-----5-----5-|--------------------------------5-|
                 
G-------------------|
D-------------------|
A-5-5---5-5---5-----|
E-----5-----5---5-5-|

Verse                           x4
G---------------------------------|
D---------------------------------|
A---------3-3-3-3-5-5-5-5-5-5-5-5-|
E-5-5-5-5-------------------------|

Interlude                       x2
G---------------------------------|
D---------------------------------|
A-0-0-0-0-2-2-2-2---------5-5-5-5-|
E-----------------0-0-0-0---------|

Verse                           x4
G---------------------------------|
D---------------------------------|
A---------3-3-3-3-5-5-5-5-5-5-5-5-|
E-5-5-5-5-------------------------|

Bridge                          x4
G---------------------------------|--------------------------------|
D---------------------------------|--------------------------------|
A-0-0-0-0-7-7-7-7-2-2-2-2-9-9-9-9-|----*Drums*---------------------|
E---------------------------------|--------------------------------|

G-------------------------|--------------------------------|
D-------------------------|--------------------------------|
A-5-5---5-5---5-5---5-5---|--*Drums*-----------------------|
E-----5-----5-----5-----5-|--------------------------------|
                                                           x4
G-------------------------|----------------------------------|
D-------------------------|----------------------------------|
A-5-5---5-5---5-5---5-5---|-0-0-0-0-0-0-0-0-0-0-0-0-0-0--5---|
E-----5-----5-----5-----5-|--------------------------------5-|
                 
G-------------------|
D-------------------|
A-5-5---5-5---5-5---|
E-----5-----5-----5-|
****************************************************************************

9.Swallow My Pride

Intro                           x2
G---------------------------------|
D---------------------------------|
A---------------------------------|
E-7-7-7-7-0-0-0-0-2-2-2-2-7-7-7-7-|

Verse           x3                                                  x4
G-----------------|-----------------|---------------------------------|
D-----------------|-----------------|---------------------------------|
A-----------------|-7-7-7-7-9-9-9-9-|-----------------7-7-7-7-9-9-9-9-|
E-7-7-7-7-7-7-7-7-|-----------------|-7-7-7-7-7-7-7-7-----------------|

Pre-Chorus                         Chorus         x3
G---------------------------------|-----------------|
D---------------------------------|-----------------|
A-----------------7-7-7-7-7-7-7-7-|---------7-7-7-7-|
E-4-4-4-4-4-4-4-4-----------------|-7-7-7-7---------|

Bridge          
G---------------------------------------------------------------------|
D---------------------------------------------------------------------|
A-7-7-7-7-7-7-7-7---------------------7-7-7-7-7-7-7-7-9-9-9-9-9-9-9-9-|
E-----------------7-7-7-7-7-7-7-7-7-7---------------------------------|

Intro                           x2
G---------------------------------|
D---------------------------------|
A---------------------------------|
E-7-7-7-7-0-0-0-0-2-2-2-2-7-7-7-7-|

Verse           x3                                                  x4
G-----------------|-----------------|---------------------------------|
D-----------------|-----------------|---------------------------------|
A-----------------|-7-7-7-7-9-9-9-9-|-----------------7-7-7-7-9-9-9-9-|
E-7-7-7-7-7-7-7-7-|-----------------|-7-7-7-7-7-7-7-7-----------------|

Pre-Chorus                         Chorus         x3
G---------------------------------|-----------------|
D---------------------------------|-----------------|
A-----------------7-7-7-7-7-7-7-7-|---------7-7-7-7-|
E-4-4-4-4-4-4-4-4-----------------|-7-7-7-7---------|

Outro                           x2
G---------------------------------|
D---------------------------------|
A---------------------------------|
E-7-7-7-7-0-0-0-0-2-2-2-2-7-7-7-7-|

****************************************************************************

10.What's Your Game

Intro
G-----------------------------------------------------------------|
D-----------------------------------------------------------------|
A-2-2-2-2-2-2-2-2-----------------2-2-2-2-2-2-2-2-----------------|
E-----------------2-2-2-2-2-2-2-2-----------------2-2-2-2-2-2-2-2-|

Verse
G-----------------------------------------------------------------|
D-----------------------------------------------------------------|
A-2-2-2-2-2-2-2-2-----------------2-2-2-2-2-2-2-2-----------------|
E-----------------2-2-2-2-2-2-2-2-----------------2-2-2-2-2-2-2-2-|

G-----------------------------------------------------------------|
D-----------------------------------------------------------------|
A-2-2-2-2-2-2-2-2-------------------------------------------------|
E-----------------2-2-2-2-2-2-2-2-2-2-2-2-2-2-2-2-2-2-2-2-2-2-2-2-|

Pre-Chorus                                                      x2
G-----------------------------------------------------------------|
D-2-2-2-2-2-2-2-2-------------------------------------------------|
A-----------------------------------2-2-2-2-2-2-2-2-2-2-2-2-2-2-2-|
E-----------------2-2-2-2-2-2-2-2-2-------------------------------|

G-----------------------------------------------------------------|
D-2-2-2-2-2-2-2-2-4-4-4-4-4-4-4-4---------------------------------|
A---------------------------------2-2-2-2-2-2-2-2-2-2-2-2-2-2-2-2-|
E-----------------------------------------------------------------|

G-----------------------------------|
D-2-2-2-2-2-2-2-2-------------------|
A-----------------------------------|
E-----------------2-2-2-2-2-2-2-2-2-|

(Repat whole song structure 3 times)

Outro (repeat till end)
G-----------------------------------------------------------------|
D-----------------------------------------------------------------|
A-2-2-2-2-2-2-2-2-----------------2-2-2-2-2-2-2-2-----------------|
E-----------------2-2-2-2-2-2-2-2-----------------2-2-2-2-2-2-2-2-|
****************************************************************************

11.California Sun

Intro and Main Played 4X
G-----------------
D-----------------
A-7777777---------      
E---------5555555-

Which goes into Verse intro And Chorus outro...
G--------------------------
D--------------------------
A-7777777--------------777-
E---------9999999 55 77---- 

***this tab was a 5 star submitted here so i'll leave it as is
****************************************************************************

12.Commando

Intro                                                      x2
G------------------------------------------------------------|
D------------------------------------------------------------|   
A--------------7-7-7-7-7-7-7-7-------------------------------|
E-9-9-9-9-9-9-------------------5-5-5-5-5-5-5--7-7-7-7-7-7-7-|

Verse                                                            x3
G------------------------------------------------------------------|
D------------------------------------------------------------------|  
A---------------------------------------------7-999999---7-999999--|
E-7-999999---7-999999---7-999999---7-999999------------------------|

Chorus                                                     x4
G------------------------------------------------------------|
D------------------------------------------------------------|
A--------------7-7-7-7-7-7-7-7-------------------------------|
E-9-9-9-9-9-9-------------------5-5-5-5-5-5-5--7-7-7-7-7-7-7-|

Interlude
G---------------------|
D---------------------|
A-7-999999---7-999999-|
E---------------------|

Outro
G-------------------------------------------------------------------|
D-------------------------------------------------------------------|
A-7-999999---7-999999---------------------------------------------7-|
E-----------------------7-999999---7-999999---7-999999---7-999999---|
****************************************************************************

13. You're Gonna Kill That Girl 

Intro
G-----------------------------------------------------------------|
D-----------------------------------------------------------------|
A-0-------------------------------5---------------7---------------|
E-----------------2-----------------------------------------------|

Chorus
G-----------------------------------------------------------------|
D-----------------------------------------------------------------|
A-0-0-0-0-0-0-0-0-----------------5-5-5-5-5-5-5-5-7-7-7-7-7-7-7-7-|
E-----------------2-2-2-2-2-2-2-2---------------------------------|

Verse
G-----------------------------------------------------------------|
D-0-0-0-0-0-0-0-0-----------------0-0-0-0-0-0-0-0-----------------|
A-----------------0-0-0-0-0-0-0-0-----------------7-7-7-7-7-7-7-7-|
E-----------------------------------------------------------------|

just listen for order
****************************************************************************

14.You Shoul Never Have Opened That Door

Intro
G------------------------------------------------|
D------------------------------------------------|
A-2--7-7-7-7-7-7--0--5-5-5-5-5-5-----3-3-3-3-3-3-|
E---------------------------------3--------------|

Verse
G-----------------------------------------------------------------|
D-----------------2-2-2-2-2-2-2-2-----------------2-2-2-2-2-2-2-2-|
A-2-2-2-2-2-2-2-2-----------------2-2-2-2-2-2-2-2-----------------|
E----------------------------------------------------------------|

G-----------------------------------------------------------------|
D-----------------2-2-2-2-2-2-2-2-----------------2-2-2-2-2-2-2-2-|
A-0-0-0-0-0-0-0-0-----------------0-0-0-0-0-0-0-0-----------------|
E-----------------------------------------------------------------|

G-----------------------------------------------------------------|
D-----------------------------------------------------------------|
A-0-0-0-0-0-0-0-0-----------------0-0-0-0-0-0-0-0-----------------|
E-----------------3-3-3-3-3-3-3-3-----------------3-3-3-3-3-3-3-3-|

Chorus                          x4
G---------------------------------|
D---------------------------------|
A-2-2-2-2-7-7-7-7-5-5-5-5-0-0-0-0-|
E---------------------------------|

Bridge                x4
G-----------------------|
D-----------------2--0--|
A-2-2-2-2-2-2-2-2-------|
E-----------------------|

Chorus                          x4
G---------------------------------|
D---------------------------------|
A-2-2-2-2-7-7-7-7-5-5-5-5-0-0-0-0-|
E---------------------------------|

Verse
G-----------------------------------------------------------------|
D-----------------2-2-2-2-2-2-2-2-----------------2-2-2-2-2-2-2-2-|
A-2-2-2-2-2-2-2-2-----------------2-2-2-2-2-2-2-2-----------------|
E----------------------------------------------------------------|

G-----------------------------------------------------------------|
D-----------------2-2-2-2-2-2-2-2-----------------2-2-2-2-2-2-2-2-|
A-0-0-0-0-0-0-0-0-----------------0-0-0-0-0-0-0-0-----------------|
E-----------------------------------------------------------------|

G-----------------------------------------------------------------|
D-----------------------------------------------------------------|
A-0-0-0-0-0-0-0-0-----------------0-0-0-0-0-0-0-0-----------------|
E-----------------3-3-3-3-3-3-3-3-----------------3-3-3-3-3-3-3-3-|

Chorus                          x4
G---------------------------------|
D---------------------------------|
A-2-2-2-2-7-7-7-7-5-5-5-5-0-0-0-0-|
E---------------------------------|

Bridge                x4
G-----------------------|
D-----------------2--0--|
A-2-2-2-2-2-2-2-2-------|
E-----------------------|

Chorus            (repeat till end)
G---------------------------------|
D---------------------------------|
A-2-2-2-2-7-7-7-7-5-5-5-5-0-0-0-0-|
E---------------------------------|

***Please note this is the original version of the album, not the re-issue
Suggest correction
What's this?
You can suggest a correction to this tab. Community and Mods will review your correction and vote to approve or reject it.
comments
We did not receive enough feedback on this tab! Please rate:
print report bad tab
1 2 3 4 5
2 comments total.
0 reply
janko.walski 11 wrote on July 12 2015, 06:05 am

Amazing job, thank you dude

0 reply
frenchabortion 10,850 wrote on July 14 2015, 11:29 pm

You got it brutha, rate it

guest
You may want to rate the tab now too:
select rating
Please do not post tabs as comments. Select "correction" instead!