Oops, an error
Loading. Please wait.

Lifes A Gas Bass Tab

10 views 1 this week
no commentswrite comment
1 2 3 4 5
3 more votes to show rating
add to favorites
launch autoscroll
font size
0
reset
guitar tuner
Autoscroll
slow
fast
+/-
esc
set tempo
stop
Help us to improve Ultimate-Guitar.com Take our survey!
×
Author
Difficulty
novice
------------------------------------------------------------------------------
                     Life’s A Gas - The Ramones
------------------------------------------------------------------------------

Tabbed by: ChrisT

From the Album: The Chrysalis Years (2002)

Tuning: Standard

Intro
G|----------------------------------------------------------------------------|
D|o--------------------------------------------------------------------------o|
A|o--10---10-10-10-9---9-9-7---7-7-5---5-5-3---3-3-3-3-3-3-5---5-5-5-5-5-5---o|
E|----------------------------------------------------------------------------|

G|----------------------------------------------------------------------|
D|----------------------------------------------------------------------|
A|---3---3-3-3-3-3-3-5---5-5-5-5-5-5-3---3-3-3-3-3-3-5---5-5-5-5-5-5----|
E|----------------------------------------------------------------------|

Verse
G|----------------------------------------------------------------------|
D|o---------------------------------------------------------------------|
A|o---------------------------------------------------------------------|
E|---3-3-3-3-3-3-3-3-0-0-0-0-0-0-0-0-3-3-3-3-3-3-3-3-0-0-0-0-0-0-0-0----|

G|----------------------------------------------------------------------|
D|---------------------------------------------------------------------o|
A|---3-3-3-3-2-2-2-2-----------------3h5-5-5-5-5-5-5-3h5-5-5-5-5-5-5---o|
E|-------------------5-5-5-5-3-3-3-3------------------------------------|

Chorus
G|----------------------------------------------------------------------|
D|----------------------------------------------------------------------|
A|---3-3-3-3-3-3-3-3-5-5-5-5-5-5-5-5------------------------------------|
E|-----------------------------------0-0-0-0-0-0-0-0-3-3-3-3-3-3-3-3----|

G|----------------------------------------------------------------------|
D|----------------------------------------------------------------------|
A|---3-3-3-3-3-3-3-3-3-3-3-3-3-3-3-3-5-5-5-5-5-5-5-5-5-5-5-5-5-5-5-5----|
E|----------------------------------------------------------------------|

Verse
G|----------------------------------------------------------------------|
D|o---------------------------------------------------------------------|
A|o---------------------------------------------------------------------|
E|---3-3-3-3-3-3-3-3-0-0-0-0-0-0-0-0-3-3-3-3-3-3-3-3-0-0-0-0-0-0-0-0----|

G|----------------------------------------------------------------------|
D|---------------------------------------------------------------------o|
A|---3-3-3-3-2-2-2-2-----------------3h5-5-5-5-5-5-5-3h5-5-5-5-5-5-5---o|
E|-------------------5-5-5-5-3-3-3-3------------------------------------|

Chorus
G|----------------------------------------------------------------------|
D|----------------------------------------------------------------------|
A|---3-3-3-3-3-3-3-3-5-5-5-5-5-5-5-5------------------------------------|
E|-----------------------------------0-0-0-0-0-0-0-0-3-3-3-3-3-3-3-3----|

G|----------------------------------------------------------------------|
D|----------------------------------------------------------------------|
A|---3-3-3-3-3-3-3-3-3-3-3-3-3-3-3-3-5-5-5-5-5-5-5-5-5-5-5-5-5-5-5-5----|
E|----------------------------------------------------------------------|

Bridge
G|----------------------------------------------------------------------|
D|----------------------------------------------------------------------|
A|----------------------------------------------------------------------|
E|---3-3-3-3-3-3-3-3-0-0-0-0-0-0-0-0-3-3-3-3-3-3-3-3-0-0-0-0-0-0-0-0----|

G|----------------------------------------------------------------------|
D|----------------------------------------------------------------------|
A|---3---3-3-2---2-2-----------------3h5-5-5-5-5-5-5-3h5-5-5-5-5-5-5----|
E|-------------------5---5-5-3---3-3------------------------------------|

G|----------------------------------------------------------------------|
D|----------------------------------------------------------------------|
A|----------------------------------------------------------------------|
E|---3-3-3-3-3-3-3-3-0-0-0-0-0-0-0-0-3-3-3-3-3-3-3-3-0-0-0-0-0-0-0-0----|

G|----------------------------------------------------------------------|
D|----------------------------------------------------------------------|
A|---3-----3-2-----2-----------------3h5-5-5-5-5-5-5-3h5-5-5-5-5-5-5----|
E|-------------------5-----5-3-----3------------------------------------|

Chorus
G|----------------------------------------------------------------------|
D|----------------------------------------------------------------------|
A|---3-3-3-3-3-3-3-3-5-5-5-5-5-5-5-5------------------------------------|
E|-----------------------------------0-0-0-0-0-0-0-0-3-3-3-3-3-3-3-3----|

G|----------------------------------------------------------------------|
D|----------------------------------------------------------------------|
A|---3-3-3-3-3-3-3-3-3-3-3-3-3-3-3-3-5-5-5-5-5-5-5-5-5-5-5-5-5-5-5-5----|
E|----------------------------------------------------------------------|

Outro                                                        Repeat until fade
G|----------------------------------------------------------------------------|
D|o--------------------------------------------------------------------------o|
A|o--10---10-10-10-9---9-9-7---7-7-5---5-5-3---3-3-3-3-3-3-5---5-5-5-5-5-5---o|
E|----------------------------------------------------------------------------|



Suggest correction
Give kudos to tab author, rate the tab!
1 2 3 4 5
comments
print report bad tab
guest
You may want to rate the tab now too:
select rating
Wanna post a correction for this tab? Suggest correction