Oops, an error
Loading. Please wait.

Main Man Bass Tab

version 2
version 2

Whole song

7 views 1 this week
no commentswrite comment
1 2 3 4 5
3 more votes to show rating
add to favorites
launch autoscroll
font size
0
reset
guitar tuner
Autoscroll
slow
fast
+/-
esc
set tempo
stop
Help us to improve Ultimate-Guitar.com Take our survey!
×
Author
Difficulty
novice
------------------------------------------------------------------------------
                     Main Man - The Ramones
------------------------------------------------------------------------------

Tabbed by: ChrisT

From the Album: The Chrysalis Years (2002)

Tuning: Standard

Intro                       Repeat x4
G|-----------------------------------|
D|o---------------------------------o|
A|o---------------------------------o|
E|---2-2-2--5-5-5--0-0-0-2--2-2-2----|

G|--------------------------------------------------------------------------------------|
D|--------------------------------------------------------------------------------------|
A|---2-2-2-2-2-2-2-2-4-4-4-4-4-4-4-4-2-2-2-2-2-2-2-2-4-4-4-4-4-4-4-4-4-4-4-4-4-4-4-4----|
E|--------------------------------------------------------------------------------------|

Verse                       Repeat x4
G|-----------------------------------|
D|o---------------------------------o|
A|o---------------------------------o|
E|---2-2-2--5-5-5--0-0-0-2--2-2-2----|

G|--------------------------------------------------------------------------------------|
D|--------------------------------------------------------------------------------------|
A|---2-2-2-2-2-2-2-2-4-4-4-4-4-4-4-4-2-2-2-2-2-2-2-2-4-4-4-4-4-4-4-4-4-4-4-4-4-4-4-4----|
E|--------------------------------------------------------------------------------------|

Chorus                      Repeat x7
G|-----------------------------------|--------------------------------------|
D|o---------------------------------o|--------------------------------------|
A|o----------------------2--2-2-2---o|--------------------------------------|
E|---2-2-2--5-5-5--0-0-0-------------|---2-2-2-2-2-2-2-2-0-0-0-0-0-0-0-0----|

Verse                       Repeat x4
G|-----------------------------------|
D|o---------------------------------o|
A|o---------------------------------o|
E|---2-2-2--5-5-5--0-0-0-2--2-2-2----|

G|--------------------------------------------------------------------------------------|
D|--------------------------------------------------------------------------------------|
A|---2-2-2-2-2-2-2-2-4-4-4-4-4-4-4-4-2-2-2-2-2-2-2-2-4-4-4-4-4-4-4-4-4-4-4-4-4-4-4-4----|
E|--------------------------------------------------------------------------------------|

Chorus                      Repeat x7
G|-----------------------------------|--------------------------------------|
D|o---------------------------------o|--------------------------------------|
A|o----------------------2--2-2-2---o|--------------------------------------|
E|---2-2-2--5-5-5--0-0-0-------------|---2-2-2-2-2-2-2-2-0-0-0-0-0-0-0-0----|

Guitar Solo                 Repeat x4
G|-----------------------------------|
D|o---------------------------------o|
A|o---------------------------------o|
E|---2-2-2--5-5-5--0-0-0-2--2-2-2----|

G|--------------------------------------------------------------------------------------|
D|--------------------------------------------------------------------------------------|
A|---2-2-2-2-2-2-2-2-4-4-4-4-4-4-4-4-2-2-2-2-2-2-2-2-4-4-4-4-4-4-4-4-4-4-4-4-4-4-4-4----|
E|--------------------------------------------------------------------------------------|

Verse                       Repeat x4
G|-----------------------------------|
D|o---------------------------------o|
A|o---------------------------------o|
E|---2-2-2--5-5-5--0-0-0-2--2-2-2----|

G|--------------------------------------------------------------------------------------|
D|--------------------------------------------------------------------------------------|
A|---2-2-2-2-2-2-2-2-4-4-4-4-4-4-4-4-2-2-2-2-2-2-2-2-4-4-4-4-4-4-4-4-4-4-4-4-4-4-4-4----|
E|--------------------------------------------------------------------------------------|

Chorus                      Repeat x7
G|-----------------------------------|--------------------------------------|
D|o---------------------------------o|--------------------------------------|
A|o----------------------2--2-2-2---o|--------------------------------------|
E|---2-2-2--5-5-5--0-0-0-------------|---2-2-2-2-2-2-2-2-0-0-0-0-0-0-0-0----|

                            Repeat x7
G|-----------------------------------|--------------------------------------|
D|o---------------------------------o|--------------------------------------|
A|o----------------------2--2-2-2---o|--------------------------------------|
E|---2-2-2--5-5-5--0-0-0-------------|---2-2-2-2-2-2-2-2-0-0-0-0-0-0-0-0----|

G|--------------------------------------------|
D|--------------------------------------------|
A|--------------------------2-2---------------|
E|---2-2-2-2--5-5--0-0-0-0-------2~-----------|

Suggest correction
Give kudos to tab author, rate the tab!
1 2 3 4 5
comments
print report bad tab
guest
You may want to rate the tab now too:
select rating
Wanna post a correction for this tab? Suggest correction