Oops, an error
Loading. Please wait.
We have an official Now I Wanna Be A Good Boy tab made by UG professional guitarists. Check out the tab »
×
by Ramones
103 views 1 this week
no commentswrite comment
1 2 3 4 5
1 last vote to show rating
add to favorites
×
Save as Personal and add changes to this tab that will be seen only by you. Learn more ›
×
You can save this tab as Personal to edit and correct it or add notes. All changes will be seen only by you. Learn more »
launch autoscroll
font size
0
reset
guitar tuner
edit
Autoscroll
slow
fast
+/-
esc
set tempo
stop
Author
Difficulty
Song: Now I Wanna Be A Good Boy
Artist: Ramones
Album: Leave Home
Genre: Punk Rock
Year: 1977

Hey guys! This is the bass tab of the song and it's 100% correct.
Anyway, enjoy the Ramones!

Intro:

G:-------------------------
D:-------------------------
A:-------3-3-5---------3---
E:---5-5----------3333-----

Verse:

G:------------------------
D:---7-77-3333-5-555555---
A:------------------------
E:------------------------

Post-Verse 1:

G:-------------------------
D:-------------------------
A:--------3333------5555---
E:---5555------3333--------

Post-Verse 2:

G:-------------------------
D:-------------------------
A:--------7777------9999---
E:---5555------7777--------

Bridge/End:

G:----------------------------
D:----------------------------
A:---5-----5-----5-----5------
E:------5-----5-----5-----5---x1 

---------------------------------------------------------------------------------------

G:----------------------------   ---------------------------   ----------------------
D:----------------------------   ---------------------------   ----------------------
A:---5-----5-----5-----5------   --------------------5------   ---5-----5-----5------
E:------5-----5-----5-----5---x2 ---5555555555555555----5---x4 ------5-----5-----5---x1


The order is:
.Intro x3
.Verse x4
.Post-Verse 1 x2
.Verse x4
.Post-Verse 2 x4
.---------------
.Bridge x1
.Verse x4
.Post-Verse x2
.Verse x4
.Post-Verse 2 x4
.---------------
.End x1





Tab by: mdc_ivan






            
            
Suggest correction
Creating personal tab
Creating personal tab
You can edit any tab online and save it as your Personal.

You can edit, replace or remove any tab part or add personal notes – all changes will be seen only by you.

Personal tabs can be accessed anytime from any device, even offline.
Learn more »
Give kudos to tab author, rate the tab!
1 2 3 4 5
comments
print report bad tab
guest
You may want to rate the tab now too:
select rating
Wanna post a correction for this tab? Suggest correction