Oops, an error
Loading. Please wait.
We have an official Now I Wanna Sniff Some Glue tab made by UG professional guitarists. Check out the tab »
×
by Ramones
3,451 views 3 this week
no commentswrite comment
1 2 3 4 5
x 3
add to favorites
×
Save as Personal and add changes to this tab that will be seen only by you. Learn more ›
×
You can save this tab as Personal to edit and correct it or add notes. All changes will be seen only by you. Learn more »
launch autoscroll
font size
0
reset
guitar tuner
backing track
0:00
0:00
edit
Autoscroll
slow
fast
+/-
esc
set tempo
stop
Author
Difficulty
The Ramones
Now I Wanna Sniff Some Glue

rik_verpoorten@hotmail.com

R = Rest

Tempo: 174bpm


Verse 1
    E  E  E  E  E  E  E  E    E  E  E  E  E  E  E  E 
G||-------------------------|-------------------------|
D||*------------------------|------------------------*|
A||*12-12-12-12-12-12-12-12-|-10-10-10-10-10-10-10-10*|
E||-------------------------|-------------------------|
                                                     4x

Break 1
    W       W       W      E Q. H
G||-------|-------|------|---------|
D||-------|-------|------|---------|
A||-12----|-10----|-8----|-7-R--R--|
E||-------|-------|------|---------|

Verse 2
     W    Q Q      
G||-----|-----|
D||*---*|-----|
A||*-R-*|-R-R-|
E||-----|-----|
       8x

Break 2
    W       W       W      E Q. H     W    E E E E E  E E  E   E E E E E  E Q
G||-------|-------|------|---------|-----|-------------------|------------------|
D||-------|-------|------|---------|-----|*----------------7-|-----------------*|
A||-12----|-10----|-8----|-7-R--R--|--R--|*7-7-7-7----7-10---|-7-7-7-7----7-10-*|
E||-------|-------|------|---------|-----|---------10--------|---------10-------|
                                                                               4x

    W       W       W      E E E E E E E E
G||-------|-------|------|-----------------|
D||-------|-------|------|-----------------|
A||-12----|-10----|-8----|-7-7-7-7-7-7-7-7\|
E||-------|-------|------|-----------------|

Verse 1  2x

Outro
    E  E  E  E  E  E  E  E    E  E  E  E  E  E  E  E    E E E E E E E E
G||-------------------------|-------------------------|-----------------|
D||*------------------------|-------------------------|-----------------|
A||*12-12-12-12-12-12-12-12-|-10-10-10-10-10-10-10-10-|-8-8-8-8-8-8-8-8-|
E||-------------------------|-------------------------|-----------------|

    E E E E E E E E
G||-----------------|
D||----------------*|
A||-7-7-7-7-7-7-7-7*|
E||-----------------|
                   3x

    E  E  E  E  E  E  E  E    E  E  E  E  E  E  E  E    E E E E E E E E
G||-------------------------|-------------------------|-----------------|
D||-------------------------|-------------------------|-----------------|
A||-12-12-12-12-12-12-12-12-|-10-10-10-10-10-10-10-10-|-8-8-8-8-8-8-8-8-|
E||-------------------------|-------------------------|-----------------|

    E Q. H
G||---------|
D||---------|
A||-7-R--R--|
E||---------|
Suggest correction
Creating personal tab
Creating personal tab
You can edit any tab online and save it as your Personal.

You can edit, replace or remove any tab part or add personal notes – all changes will be seen only by you.

Personal tabs can be accessed anytime from any device, even offline.
Learn more »
Give kudos to tab author, rate the tab!
1 2 3 4 5
comments
print report bad tab
guest
You may want to rate the tab now too:
select rating
Wanna post a correction for this tab? Suggest correction