Oops, an error
Loading. Please wait.

Poison Heart Bass Tab

version 1
version 1

Whole song

Interactive

61 views 9 this week
no commentswrite comment
1 2 3 4 5
3 more votes to show rating
add to favorites
launch autoscroll
font size
0
reset
guitar tuner
Autoscroll
slow
fast
+/-
esc
set tempo
stop
Help us to improve Ultimate-Guitar.com Take our survey!
×
Intro
G----------------------------------------------------------------------------------------------|
D---------------------------------2------------------------------------------------------------|
A-4-4-4-4--2-2-2-2-2-2-2--4-4-4-4---2-2-2-2-2-2-2-2--4-4-4-4--2-2-2-2-2-2-2-2--0-0-0-0-0-0-0-0-|
E----------------------------------------------------------------------------------------------|

Verse                             x3
G-----------------------------------|------------------|
D-----------------------------------|------------------|
A-4-4-4-4-4-4-4-4--7-7-7-7-7-7-7-7--|-0-0-0-0--2-2-2-2-|
E-----------------------------------|------------------|

                                  x3
G-----------------------------------|------------------|
D-----------------------------------|------------------|
A-4-4-4-4-4-4-4-4--7-7-7-7-7-7-7-7--|-0-0-0-0--2-2-2-2-|
E-----------------------------------|------------------|

Chorus
G------------------------------------------------------------------------|
D------------------------------------------------------------------------|
A-0-0-0-0--2-2-2-2--4-4-4--2--0-0-0-0--0-0-0-0--2-2-2-2--4-4-4-4-4-4-4-4-|
E------------------------------------------------------------------------|

G----------------------------------------------------------------------------------------------------------|
D----------------------------------------------------------------------------------------2-----------------|
A-0-0-0-0--2-2-2-2--4-4-4--2--0-0-0-0--0-0-0-0--2-2-2-2--4-4-4-4--2-2-2-2-2-2-2--4-4-4-4---2-2-2-2-2-2-2-2-|
E----------------------------------------------------------------------------------------------------------|

Verse                             x3
G-----------------------------------|------------------|
D-----------------------------------|------------------|
A-4-4-4-4-4-4-4-4--7-7-7-7-7-7-7-7--|-0-0-0-0--2-2-2-2-|
E-----------------------------------|------------------|

                                  x3
G-----------------------------------|------------------|
D-----------------------------------|------------------|
A-4-4-4-4-4-4-4-4--7-7-7-7-7-7-7-7--|-0-0-0-0--2-2-2-2-|
E-----------------------------------|------------------|

Second Chorus
G------------------------------------------------------------------------|
D------------------------------------------------------------------------|
A-0-0-0-0--2-2-2-2--4-4-4--2--0-0-0-0--0-0-0-0--2-2-2-2--4-4-4-4-4-4-4-4-|
E------------------------------------------------------------------------|

G----------------------------------------------------------------------------------------------------------|
D----------------------------------------------------------------------------------------2-----------------|
A-0-0-0-0--2-2-2-2--4-4-4--2--0-0-0-0--0-0-0-0--2-2-2-2--4-4-4-4--2-2-2-2-2-2-2--4-4-4-4---2-2-2-2-2-2-2-2-|
E----------------------------------------------------------------------------------------------------------|

G-----------------------------------------|
D-----------------------------------------|
A-4-4-4-4--2-2-2-2-2-2-2--0-0-0-0-0-0-0-0-|
E-----------------------------------------|

Bridge
G-----------------------------------------------------------------|
D-----------------------------------------------------------------|
A-7-7-7-7-7-7-7-7-----------------7-7-7-7-7-7-7-7-----------------|
E-----------------5-5-5-5-5-5-5-5-----------------5-5-5-5-5-5-5-5-|

Verse                             x3
G-----------------------------------|------------------|
D-----------------------------------|------------------|
A-4-4-4-4-4-4-4-4--7-7-7-7-7-7-7-7--|-0-0-0-0--2-2-2-2-|
E-----------------------------------|------------------|

                                  x3
G-----------------------------------|------------------|
D-----------------------------------|------------------|
A-4-4-4-4-4-4-4-4--7-7-7-7-7-7-7-7--|-0-0-0-0--2-------|
E-----------------------------------|------------------|

Final Chorus/Outro                                                    
G------------------------------------------------------------------------|
D------------------------------------------------------------------------|
A-0-0-0-0--2-2-2-2--4-4-4--2--0-0-0-0--0-0-0-0--2-2-2-2--4-4-4-4-4-4-4-4-|
E------------------------------------------------------------------------|

G------------------------------------------------------------------------|
D------------------------------------------------------------------------|
A-0-0-0-0--2-2-2-2--4-4-4--2--0-0-0-0--0-0-0-0--2-2-2-2--4-4-4-4-4-4-4-4-|
E------------------------------------------------------------------------|

G---------------------------------------------------|
D---------------------------------------------------|
A-0-0-0-0--2-2-2-2--4-4-4--2--0-0-0-0--0-0-0-0--2---|
E---------------------------------------------------|

("A Poison Heart, A Poison Heart, A Poison Heart...")
G--------------------------------------------------------------------------------------------------------|
D---------------------------------2---------------------------------------------------2------------------|
A-4-4-4-4--2-2-2-2-2-2-2--4-4-4-4---2-2-2-2-2-2-2-2---4-4-4-4--2-2-2-2-2-2-2--4-4-4-4---2-2-2-2-2-2-2-2--|
E--------------------------------------------------------------------------------------------------------|

G---------------------------------------------------------------------------------------------|
D---------------------------------2-----------------------------------------------------------|
A-4-4-4-4--2-2-2-2-2-2-2--4-4-4-4---2-2-2-2-2-2-2-2---4-4-4-4--2-2-2-2-2-2-2--0-0-0-0-0-0-0-0-|
E---------------------------------------------------------------------------------------------|

G-------------------------------------------------------------------|
D-------------------------------------------------------------------|
A-0-0-0-0-0-0-0-0-0-0-0-0-0-0-0-0-0-0-0-0-0-0-0---2---4-------------|
E-------------------------------------------------------------------|
Suggest correction
Give kudos to tab author, rate the tab!
1 2 3 4 5
comments
print report bad tab
guest
You may want to rate the tab now too:
select rating
Wanna post a correction for this tab? Suggest correction