Oops, an error
Loading. Please wait.

Poison Heart Tab

version 1
version 1

Whole song

Interactive

41,822 views 81 this week
4 commentsread comments
1 2 3 4 5
accurate
x 14
add to favorites
launch autoscroll
font size
0
reset
how to read this tab
guitar tuner
Tab Pro tools
  • play this tab
  • loop segment
  • change instrument
  • show fretboard
  • metronome
×
Best way to learn
"Poison Heart"
Autoscroll
slow
fast
+/-
esc
set tempo
stop
Contributor
Difficulty
intermediate
-------------------------------------------------------------------------------
                             Poison Heart- The Ramones
-------------------------------------------------------------------------------
Tabbed by: Chordmonkey
Tuning: standard
   
  Main riff
   C#m         E              (X3)    A
e|------------------------------|--------0------------0-----------|
B|-----5----5----5----4h5p4-----|------------0------------0-------|
G|--6-----6---4----5---------4--|-----2----------2----------------|
D|------------------------------|---------------------------------|
A|------------------------------|---------------------------------|
E|------------------------------|---------------------------------|

Verse (palm mute)X3
e|-----------------|--------0---------------0----------------------|
B|-----------------|-----------0----------------0------------------|
G|-66666--99999----|---2222-------2----444-----------2-------------|
D|-66666--99999----|---2222------------444-------------------------|
A|-44444--77777----|---0000------------222-------------------------|
E|-----------------|-----------------------------------------------|

Chorus
  "I just wanna walk..."
e|------0-------------0--------------------0-----------------------|
B|---------0-------------0------5555-----------0-------------------|
G|-2-22-------2--4-44-------2---6666--2222---------2---------------|
D|-2-22----------4-44-----------6666--2222-------------------------|
A|-0-00----------2-22-----------4444--0000-------------------------|
E|-----------------------------------------------------------------|

  "Cause everybody has.."
e|-----------------------------------------------------------------|
B|--------------------555555---555555------------------------------|
G|-222222---4444444---666666---666666------------------------------|
D|-222222---4444444---666666---666666------------------------------|
A|-000000---2222222---444444---444444------------------------------|
E|-----------------------------------------------------------------|

Bridge (play X2)
  E                 A
e|-------------------------------------|
B|-------------------------------------|
G|------------------6--7--9--7--6------|
D|-6--7--9--7--6-----------------------|
A|-------------------------------------|
E|-------------------------------------|


Last chorus
  "I just wanna walk..."
e|------0-------------0--------------------0-----------------------|
B|---------0-------------0------5555-----------0-------------------|
G|-2-22-------2--4-44-------2---6666--2222---------2---------------|
D|-2-22----------4-44-----------6666--2222-------------------------|
A|-0-00----------2-22-----------4444--0000-------------------------|
E|-----------------------------------------------------------------|

  "Cause everybody has.."              lead*
e|------------------------------------|-5555--5555--2222--0000------|
B|--------------------555555---555555-|-6666--5555--2222--0000------|
G|-222222---4444444---666666---666666-|-----------------------------|
D|-222222---4444444---xxxxxx---xxxxxx-|-----------------------------|
A|-000000---2222222---444444---444444-|-----------------------------|
E|------------------------------------|-----------------------------|

*= play this little lead bit over the C#m during the last chorus. Listen to the song for the timing.

comments
print report bad tab
4 comments total. Showing first comments.
0 reply
l..l,_ (o.O) wrote on August 18 2008, 06:16 pm

GREAT TAB U ROCK!!!

0 reply
rastan3 wrote on February 12 2012, 02:25 pm

IN THE INTRO IT GOES C# B (X3) A NOT C# E (X3) A

0 reply
obrin wrote on March 20 2013, 06:29 pm

Great tab and great song! It may be helpful to note that during the chorus, you have both the lead guitar and rhythm guitar tabbed on the same bar. Both are correct, but switching between the chords and lead arpeggios fast enough would be very difficult on one guitar.

I want to post or [tab]
guest
You may want to rate the tab now too:
select rating
Please do not post tabs as comments. Select "correction" instead!