Oops, an error
Loading. Please wait.

Poison Heart Tab

version 1
version 1

Whole song

Interactive

44,144 views 72 this week
4 commentsread comments
1 2 3 4 5
x 14
add to favorites
launch autoscroll
font size
0
reset
how to read this tab
guitar tuner
Autoscroll
slow
fast
+/-
esc
set tempo
stop
Help us to improve Ultimate-Guitar.com Take our survey!
×
Author
Difficulty
intermediate
Artist: Ramones
Song: Poison heart
Tabbed by: Chordmonkey
Tuning: Standard
   
[Main riff]
   C#m         E              (X3)    A
e|------------------------------|--------0------------0-----------|
B|-----5----5----5----4h5p4-----|------------0------------0-------|
G|--6-----6---4----5---------4--|-----2----------2----------------|
D|------------------------------|---------------------------------|
A|------------------------------|---------------------------------|
E|------------------------------|---------------------------------|

[Verse]
(palm mute)X3
e|-------------------------|-----------0----------------0-----------------------|
B|-------------------------|-----------0----------------0-----------------------|
G|-6-6-6-6-6--9-9-9-9-9----|---2-2-2-2-------2----4-4-4-----------2-------------|
D|-6-6-6-6-6--9-9-9-9-9----|---2-2-2-2------------4-4-4-------------------------|
A|-4-4-4-4-4--7-7-7-7-7----|---0-0-0-0------------2-2-2-------------------------|
E|-------------------------|----------------------------------------------------|

[Chorus]
  "I just wanna walk..."
e|------0-------------0--------------------0-------------------------------|
B|---------0-------------0------5-5-5-5-----------0------------------------|
G|-2-2-2-------2--4-4-4-------2---6-6-6-6--2-2-2-2---------2---------------|
D|-2-2-2----------4-4-4-----------6-6-6-6--2-2-2-2-------------------------|
A|-0-0-0----------2-2-2-----------4-4-4-4--0-0-0-0-------------------------|
E|-------------------------------------------------------------------------|

  "Cause everybody has.."
e|--------------------------------------------------------------------------------------|
B|--------------------5-5-5-5-5-5---5-5-5-5-5-5-----------------------------------------|
G|-2-2-2-2-2-2---4-4-4-4-4-4-4---6-6-6-6-6-6---6-6-6-6-6-6------------------------------|
D|-2-2-2-2-2-2---4-4-4-4-4-4-4---6-6-6-6-6-6---6-6-6-6-6-6------------------------------|
A|-0-0-0-0-0-0---2-2-2-2-2-2-2---4-4-4-4-4-4---4-4-4-4-4-4------------------------------|
E|--------------------------------------------------------------------------------------|

[Bridge] X2
  E                 A
e|-------------------------------------|
B|-------------------------------------|
G|------------------6--7--9--7--6------|
D|-6--7--9--7--6-----------------------|
A|-------------------------------------|
E|-------------------------------------|

[Chorus]
  "I just wanna walk..."
e|------0-------------0--------------------0-------------------------------|
B|---------0-------------0------5-5-5-5-----------0------------------------|
G|-2-2-2-------2--4-4-4-------2---6-6-6-6--2-2-2-2---------2---------------|
D|-2-2-2----------4-4-4-----------6-6-6-6--2-2-2-2-------------------------|
A|-0-0-0----------2-2-2-----------4-4-4-4--0-0-0-0-------------------------|
E|-------------------------------------------------------------------------|

  "Cause everybody has.."              lead*
e|---------------------------------------------------------|-5-5-5-5--5-5-5-5--2-2-2-2--0-0-0-0------|
B|-------------------------------5-5-5-5-5-5---5-5-5-5-5-5-|-6-6-6-6--5-5-5-5--2-2-2-2--0-0-0-0------|
G|-2-2-2-2-2-2---4-4-4-4-4-4-4---6-6-6-6-6-6---6-6-6-6-6-6-|-----------------------------------------|
D|-2-2-2-2-2-2---4-4-4-4-4-4-4---x-x-x-x-x-x---x-x-x-x-x-x-|-----------------------------------------|
A|-0-0-0-0-0-0---2-2-2-2-2-2-2---4-4-4-4-4-4---4-4-4-4-4-4-|-----------------------------------------|
E|---------------------------------------------------------|-----------------------------------------|

(*= play this little lead bit over the C#m during the last chorus. Listen to the song for the timing)


************************************

| h  Hammer-on
| p  Pull-off
| x  Dead note

************************************
Suggest correction
comments
print report bad tab
4 comments total. Showing first comments.
0 reply
l..l,_ (o.O) 10 Aug 18, 2008 06:16 PM

GREAT TAB U ROCK!!!

0 reply
rastan3 25 Feb 12, 2012 02:25 PM

IN THE INTRO IT GOES C# B (X3) A NOT C# E (X3) A

0 reply
obrin 621 Mar 20, 2013 06:29 PM

Great tab and great song! It may be helpful to note that during the chorus, you have both the lead guitar and rhythm guitar tabbed on the same bar. Both are correct, but switching between the chords and lead arpeggios fast enough would be very difficult on one guitar.

guest
You may want to rate the tab now too:
select rating
Wanna post a correction for this tab? Suggest correction