Oops, an error
Loading. Please wait.

Punishment Fits The Crime Bass Tab

22 views 3 this week
no commentswrite comment
1 2 3 4 5
3 more votes to show rating
add to favorites
launch autoscroll
font size
0
reset
guitar tuner
Autoscroll
slow
fast
+/-
esc
set tempo
stop
Help us to improve Ultimate-Guitar.com Take our survey!
×
Author
Difficulty
novice
------------------------------------------------------------------------------
             Punishment Fits The Crime - The Ramones
------------------------------------------------------------------------------

Tabbed by: ChrisT

From the Album: The Chrysalis Years (2002)

Tuning: Standard

Intro
G|--------------------------------------|
D|o------------------------------------o|
A|o----------3-3-3-3-5-5-5-5-3-3-3-3---o|
E|---5-5-5-5----------------------------|

Verse                          Repeat x4
G|--------------------------------------|
D|o------------------------------------o|
A|o----------3-------5-------3---------o|
E|---5----------------------------------|

G|--------------------------------------|
D|--------------------------------------|
A|-----------3-------5-5-5-5-3-3-3-3----|
E|---5----------------------------------|

Chorus                         Repeat x4
G|--------------------------------------|
D|o------------------------------------o|
A|o------------------------------------o|
E|---5-5-5-5-1-1-1-3---3-3-3-3-3-3-3----|

Verse                          Repeat x4
G|--------------------------------------|
D|o------------------------------------o|
A|o----------3-------5-------3---------o|
E|---5----------------------------------|

G|--------------------------------------|
D|--------------------------------------|
A|-----------3-------5-5-5-5-3-3-3-3----|
E|---5----------------------------------|

Chorus                         Repeat x4
G|--------------------------------------|
D|o------------------------------------o|
A|o------------------------------------o|
E|---5-5-5-5-1-1-1-3---3-3-3-3-3-3-3----|

Guitar Solo
G|----------------------------------------------------|
D|o---------------------------------------------------|
A|o--8-8-8-8-8---8-8-8-8-8---8-8-8-8-8---8-8-8-8-8----|
E|----------------------------------------------------|

                                             Repeat x3
G|----------------------------------------------------|
D|---------------------------------------------------o|
A|---5-5-5-5-5---5-5-5-5-5---5-5-5-5-5---5-5-5-5-5---o|
E|----------------------------------------------------|

G|----------------------------------------------------|
D|----------------------------------------------------|
A|---8-8-8-8-8---8-8-8-8-8---8-8-8-8-8---8-8-8-8-8----|
E|----------------------------------------------------|

G|------------------------------------------------------------------------|
D|------------------------------------------------------------------------|
A|---10-10-10-10-10---10-10-10-10-10---10-10-10-10-10---10-10-10-10-10\---|
E|------------------------------------------------------------------------|

G|-----------------------------|
D|-----------------------------|
A|---5-3--3-5------------------|
E|-------------5-1~------------|

Verse                          Repeat x4
G|--------------------------------------|
D|o------------------------------------o|
A|o----------3-------5-------3---------o|
E|---5----------------------------------|

G|--------------------------------------|
D|--------------------------------------|
A|-----------3-------5-5-5-5-3-3-3-3----|
E|---5----------------------------------|

Chorus                        Repeat x11
G|--------------------------------------|
D|o------------------------------------o|
A|o------------------------------------o|
E|---5-5-5-5-1-1-1-3---3-3-3-3-3-3-3----|

G|--------------------------------------|
D|--------------------------------------|
A|--------------------------------------|
E|---5-5-5-5-1-1-1-3~-------------------|
Suggest correction
Give kudos to tab author, rate the tab!
1 2 3 4 5
comments
print report bad tab
guest
You may want to rate the tab now too:
select rating
Wanna post a correction for this tab? Suggest correction