Oops, an error
Loading. Please wait.

Ramona Bass Tab

version 1
version 1

Whole song

1,075 views 3 this week
no commentswrite comment
1 2 3 4 5
2 more votes to show rating
add to favorites
launch autoscroll
font size
0
reset
guitar tuner
Autoscroll
slow
fast
+/-
esc
set tempo
stop
Help us to improve Ultimate-Guitar.com Take our survey!
×
Intro                        x2 
G------------------------------|
D------------------------------|
A-3--3-3-3-3-3---3-3-3-3-3-3-3-|
E--------------1---------------|

Verse
G---------------------------------|---------------------------------|
D---------------------------------|---------------------------------|
A-3-3-3-3-3-3-3-3-----------------|-3-3-3-3-3-3-3-3-----------------|
E-----------------1-1-1-1-3-3-3-3-|-----------------1-1-1-1-3-3-3-3-|

G-----------------------------------------------------------------|
D-----------------------------------------------------------------|
A-----------------3-3-3-3-3-3-3-3---------------------------------|
E-1-1-1-1-1-1-1-1-----------------1-1-1-1-1-1-1-1-3-3-3-3-3-3-3-3-|

Verse
G---------------------------------|---------------------------------|
D---------------------------------|---------------------------------|
A-3-3-3-3-3-3-3-3-----------------|-3-3-3-3-3-3-3-3-----------------|
E-----------------1-1-1-1-3-3-3-3-|-----------------1-1-1-1-3-3-3-3-|

G-----------------------------------------------------------------|
D-----------------------------------------------------------------|
A-----------------3-3-3-3-3-3-3-3---------------------------------|
E-1-1-1-1-1-1-1-1-----------------1-1-1-1-1-1-1-1-3-3-3-3-3-3-3-3-|

Chorus                          x3
G---------------------------------|---------------------------------|
D---------------------------------|---------------------------------|
A-1-1-1-1-1-1-1-1-----------------|-1-1-1-1-1-1-1-1-3-3-3-3-3-3-3-3-|
E-----------------1-1-1-1-1-1-1-1-|---------------------------------|

Intro              
G------------------------------|
D------------------------------|
A-3--3-3-3-3-3---3-3-3-3-3-3-3-|
E--------------1---------------|

Verse
G---------------------------------|---------------------------------|
D---------------------------------|---------------------------------|
A-3-3-3-3-3-3-3-3-----------------|-3-3-3-3-3-3-3-3-----------------|
E-----------------1-1-1-1-3-3-3-3-|-----------------1-1-1-1-3-3-3-3-|

G-----------------------------------------------------------------|
D-----------------------------------------------------------------|
A-----------------3-3-3-3-3-3-3-3---------------------------------|
E-1-1-1-1-1-1-1-1-----------------1-1-1-1-1-1-1-1-3-3-3-3-3-3-3-3-|

Chorus                          x3
G---------------------------------|---------------------------------|
D---------------------------------|---------------------------------|
A-1-1-1-1-1-1-1-1-----------------|-1-1-1-1-1-1-1-1-3-3-3-3-3-3-3-3-|
E-----------------1-1-1-1-1-1-1-1-|---------------------------------|

Outro                        x2
G------------------------------|
D------------------------------|
A-3--3-3-3-3-3---3-3-3-3-3-3-3-|
E--------------1---------------|
Suggest correction
Give kudos to tab author, rate the tab!
1 2 3 4 5
comments
print report bad tab
guest
You may want to rate the tab now too:
select rating
Wanna post a correction for this tab? Suggest correction