Oops, an error
Loading. Please wait.

Ramones Bass Tab

version 2
version 2

Album

Whole song

Interactive

2,635 views 9 this week
1 commentread comment
1 2 3 4 5
excellent!
x 4
add to favorites
launch autoscroll
font size
0
reset
guitar tuner
Tab Pro tools
  • play this tab
  • loop segment
  • change instrument
  • show fretboard
  • metronome
Autoscroll
slow
fast
+/-
esc
set tempo
stop
Contributor
	NOT TOO BAD I HOPE, SPENT AWHILE FIGURING THE WHOLE THING OUT, MIGHT BE
MISSING SOME SUBTLETIES ON SOME, BUT THEY ALL SOUND RIGHT TO ME

============================================================================
Track 1 of 14:
BLITZKRIEG BOP
============================================================================

  VERSE
|-----------------|-----------------|-----------------|-----------------|
|-----------------|-----------------|-----------------|-----------------|
|---------5-5-7777|---------5-5-7777|---------5-5-7777|-----5555--------|
|-55555555--------|-55555555--------|-55555555--------|-5555----55555555|

|-----------------|-----------------|-----------------|-----------------|
|-----------------|-----------------|-----------------|-----------------|
|---------5-5-7777|---------5-5-7777|---------5-5-7777|-----5555--------|
|-55555555--------|-55555555--------|-55555555--------|-5555----55555555|

  INTRO/OUTRO RIFF
|------------------------------------|
|------------------------------------|
|------------------------------------|
|-55555555-55555555-55555555-55555555|

  CHORUS
|------------------|-----------------|------------------|-----------------|
|------------------|-----------------|------------------|-----------------|
|-55555555-55555555|---------5555----|-55555555-55555555|---------5-5-7777|
|------------------|-55555555----5555|------------------|-77777777--------|

ORDER:
VERSE
rest for 2 hey ho's then
INTRO/OUTRO RIFF
VERSE
CHORUS
VERSE
CHORUS
VERSE
rest for 2 hey ho's and then
INTRO/OUTRO RIFF


============================================================================
Track 2 of 14:
 BEAT ON THE BRAT
============================================================================

  INTRO
|------------------------|
|-------2-------2---2---2|
|-222222--222222--22--22-|
|------------------------|

  RIFF A
|------------------------------------------------------------------------|
|-------------------------------------------------------2-222222-4-444444|
|-22222222-22222222-22222222-22222222-22222222-22222222------------------|
|------------------------------------------------------------------------|

  RIFF B
|------------------------------------------------------------------------|
|-------------------2-222222-4-444444------------------------------------|
|-22222222-22222222-------------------22222222-22222222------------------|
|-------------------------------------------------------5-555555-2-222222|

|------------------|
|------------------|
|------------------|
|-5-555555-2-222222|

  RIFF C
|------------------------------------------------------------------------|
|---------22222222--------22222222---------------------------------------|
|-22222222--------22222222--------22222222-22222222----------------------|
|---------------------------------------------------5-55555555-2-22222222|

  RIFF D
|-------------------------------------------------------|
|-----------------------------2-------2---2---2---2---2-|
|-----------------------222222--222222--22--22--22--22--|
|-5-55555555-2-22222222---------------------------------|

ORDER:
INTRO
RIFF A x2
RIFF B
RIFF C x2
RIFF D
RIFF A x2
RIFF B
RIFF C x2
RIFF D


============================================================================
Track 3 of 14:
 JUDY IS A PUNK
============================================================================

  INTRO
|----------------------------------------------|
|----------------------------------------------|
|-66666666-66666666-66666666-66666666-66666666-|
|----------------------------------------------|

  RIFF A
|------------------------------------------------------|
|-88888888-88888888-66666666-88888888-66666666-88888888|
|------------------------------------------------------|
|------------------------------------------------------|

  RIFF B
|-----------------------------------------------------------------|
|---------88888888--------88888888--------88888888--------88888888|
|-66666666--------66666666--------66666666--------66666666--------|
|-----------------------------------------------------------------|

  RIFF C
|--------------------------------------------|
|-88888888-88888888--------------------------|
|------------------66666666-66666666-66666666|
|--------------------------------------------|

ORDER:
INTRO
PART A
PART B
PART C
PART A
PART B
PART B
PART C
PART A
PART B this time hold the last Bb (D string 8 fret[whole note]) at the end instead of 
it 8 [eighth notes (duh)] times like it normally would be


============================================================================
Track 4 of 14:
  I WANNA BE YOUR BOYFRIEND
============================================================================

 MAIN RIFF
|------------------|
|------------------|
|-7-777777---------| x6
|---------5555-7777|

 OTHER RIFF
|-----------------|
|-----------------|
|-4-444444--------| x4
|---------5-555555|

ORDER:
MAIN RIFF
OTHER RIFF
MAIN RIFF
OTHER RIFF
MAIN RIFF
OTHER RIFF
MAIN RIFF, just repear over & over until the song fade away


============================================================================
Track 5 of 14:
  CHAINSAW
============================================================================

 INTRO
|-----------------------------------|
|-----------------------------------|
|---------------------------7-777777|
|-5-555555-2-222222-7-777777--------|

 VERSE
|---------------------------------------------------------------------|
|---------------------------------------------------------------------|
|---------------------------------------------77777777--------77777777|
|-55555555-22222222-55555555-22222222-77777777--------77777777--------|

|---------------------------------------------------------------------|
|---------------------------------------------------------------------|
|---------------------------------------------77777777--------77777777|
|-55555555-22222222-55555555-22222222-77777777--------77777777--------|

|------------------|
|------------------|
|-99999999-77777777|
|------------------|

 BRIDGE
|----------------------------------------------------------------------|
|----------------------------------------------------------------------|
|------------------77777777-77777777-----------------------------------|
|-55555555-55555555-----------------55555555-55555555-77777777-77777777|


ORDER:
INTRO
VERSE x2
BRIDGE
VERSE
OUTRO - for the outro repeat |-----this---------| until the songs fade away
                             |------------------|
                             |------------------|
                             |-55555555-22222222|


============================================================================
Track 6 of 14:
 NOW I WANNA SNIFF SOME GLUE
============================================================================

 MAIN RIFF
|------------------------------------------------------------------------|
|------------------------------------------------------------------------|
|-55555555-33333333-55555555-33333333-55555555-33333333-55555555-33333333|
|------------------------------------------------------------------------|

 RIFF A
|-----------------------------|
|-----------------------------|
|-5--------3--------1--------0|
|-----------------------------|

 BRIDGE
|--------------------------------------------------------------------|
|------57-------5-------57-------5-------57-------5--------57-------5|
|-77757---777757--777757---777757--777757---777757---777757---777757-|
|--------------------------------------------------------------------|

 RIFF B
|-----------------------------------|
|-----------------------------------|
|-5-------3--------1--------00000000|
|-----------------------------------|

 OUTRO
|------------------------------------|
|------------------------------------|
|-55555555-33333333-11111111-00000000|
|------------------------------------|

 OUTRO ENDING
|-----------------------------|
|-----------------------------|
|-55555555-33333333-11111111-0|
|-----------------------------|

ORDER:
MAIN RIFF
RIFF A x2
BRIDGE
RIFF B
MAIN RIFF x2
OUTRO x4
OUTRO ENDING


============================================================================
Track 7 of 14:
 I DON'T WANNA GO DOWN TO THE BASEMENT
============================================================================

 INTRO
|----------------------------------------|
|----------------------------------------|
|-77----777----55----555----33----333----|
|---7777---7777--5555---5555--3333---3333|

 RIFF A
|--------------------------------------------------------------------|
|--------------------------------------------------------------------|
|--------------7-5--------------7-5--------------7-5--------------7-5|
|-55555555-5555----55555555-5555----55555555-5555----55555555-5555---|

 RIFF B
|---------------------------------|
|---------------------------------|
|-77777777---7777--55555555---5555|
|---------777--------------555----|

 RIFF C
|------------------------------------------------------------------------|
|------------------------------------------------------------------------|
|------------------------------------------------------------------------|
|-55555555-5555-1-3-55555555-5555-13--55555555-5555-1-3-55555555-5555-1-3|

 RIFF D
|-----------|
|-----------|
|-77----777-|
|---7777---7|

ORDER:
INTRO
RIFF A
RIFF B
RIFF C
INTRO
RIFF A
RIFF B
RIFF C
INTRO
RIFF A
RIFF B
RIFF C
RIFF D


============================================================================
Track 8 of 14:
 LOUDMOUTH
============================================================================

 INTRO
|------------------------------------------------------------|
|------------------------------------------------------------|
|---------77-------------77-------------77-------------77----|
|-55555555--7777-55555555--7777-55555555--7777-55555555--7777|

 RIFF A
|---------------------------------------------|
|---------------------------------------------|
|----77777777---77777777---55555555---55555555|
|-3-5--------3-5--------3-5--------3-5--------|

 RIFF B
|--------------------------------------------------------------------------|
|--------------------------------------------------------------------------|
|2222--------------2222--------------2222--------------2222----------------|
|----3333-555-0-000----3333-555-0-000----3333-555-0-000------3333-555-0-000|

 OUTRO
|------------------|
|------------------|
|-7--5--3----------|
|--7--5--3-55555555|


ORDER:
INTRO
RIFF A
RIFF B
INTRO
RIFF A
RIFF B
INTRO
RIFF A
RIFF B
OUTRO repeat until song fades away...


============================================================================
Track 9 of 14:
 HAVANA AFFAIR
============================================================================

 INTRO
|----------------------------------|
|----------------------------------|
|---------5555-------------5555----|
|-77777777----5555-77777777----5555|

 VERSE
|------------------------------------------------------------------------|
|------------------------------------------------------------------------|
|------------------------------------------------------------------------|
|-77777777-33333333-55555555-22222222-77777777-33333333-55555555-22222222|

 CHORUS
|-----------------------------------------------------------------------|
|-----------------------------------------------------------------------|
|------------------------------------22222222----------22222222---------|
|-33333333-22222222-33333333-22222222--------3333-2222---------3333-2222|

 BRIDGE
|------------------------------------------------|
|------------------------------------------------|
|----------57----------57----------57----------57|
|-5h7777777---5h7777777---5h7777777---5h7777777--|

 ENDING
|---|
|---|
|---|
|-7-|

OUTRO:
INTRO
VERSE
CHORUS
VERSE
CHORUS
BRIDGE
VERSE
CHORUS
BRIDGE
VERSE
CHORUS
VERSE
ENDING


============================================================================
Track 10 of 14:
 LISTEN TO MY HEART
============================================================================

 VERSE
|----------------------------------------------------------------|
|---------7-777777--------7-77777--------7-777777--------7-777777|
|-5-555555--------5-555555-------5-555555--------5-555555--------|
|----------------------------------------------------------------|

 BRIDGE
|------------------------------------------------------|
|---------55555555--------5h7777777-5h7777777-5h7777777|
|-77777777--------77777777-----------------------------|
|------------------------------------------------------|

 CHORUS
|--------------------------------------------------------------------|
|--------------------------------------------------------------------|
|-77777777-77777777-44444444-77777777--------77777777--------77777777|
|------------------------------------55555555--------55555555--------|

|------------------|
|------------------|
|------------------|
|-77777777-77777777|

ORDER:
VERSE
BRIDGE
VERSE
CHORUS
VERSE
BRIDGE
VERSE
CHORUS
VERSE for the outro repeat this


============================================================================
Track 11 of 14:
 53RD AND 3RD
============================================================================

 MAIN RIFF
|------------------------------------------------------|
|------------------------------------------------------|
|-77777-77-5555-----77777-77-5555-----77777-77-5555----|
|--------------5555--------------5555--------------5555|

|------------------------------------------------------|
|------------------------------------------------------|
|-77777-77-5555-----77777-77-5555-----77777-77-5555----|
|--------------5555--------------5555--------------5555|

 CHORUS
|--------------------------------------------------------------------|
|--------------------------------------------------------------------|
|-5555-------------5555-------------5555-------------5555------------|
|-----555533335555-----555533335555-----555533335555-----555533335555|

 BRIDGE
|-----------------------------------------------------------------------|
|-----------------------------------------------------------------------|
|-----------------------------------------------------------------------|
|-77777777-55555555-77777777-55555555-77777777-55555555-77777777-5555555|

 ALTERNATE RIFF
|------------------------------------------------------|
|------------------------------------------------------|
|-77777-77-5555-----77777-77-5555-----77777-77-5555----|
|--------------5555--------------5555--------------5555|

|------------------------------------------------------|
|------------------------------------------------------|
|-77777-77-5555-----------------------77777-77-5555----|
|--------------5-----------------------------------5555|

ORDER:
MAIN RIFF
CHORUS
MAIN RIFF
CHORUS
BRIDGE
CHORUS
ALTERNATE RIFF
MAIN RIFF repeat until song fades away


============================================================================
Track 12 of 14:
 LET’S DANCE
============================================================================

 VERSE
|--------------------------------------------------------------------------|
|--------------------55555555-55555555-------------------------------------|
|---33333333-33333333-----------------55555555-33333333-55555555-33333333--|
|-3------------------------------------------------------------------------|

|------------------------------------|
|-55555555-55555555-55555555-55555555|
|------------------------------------|
|------------------------------------|

 BRIDGE
|--------------------------------------------------------------------|
|--------------------------33333333----------------------------------|
|---------22222222-55555555--------33333333-33333333-----------------|
|-33333333------------------------------------------33333333-33333333|

|-----------------------------------------------------------------------|
|------------------------------------55555555-55555555-55555555-55555555|
|-55555555-33333333-55555555-33333333-----------------------------------|
|-----------------------------------------------------------------------|

 OUTRO
|--------------------|
|-55555555-55555555-5|
|--------------------|
|--------------------|

ORDER:
VERSE
VERSE
BRIDGE
VERSE
VERSE
OUTRO


============================================================================
Track 13 of 14:
 I DON’T WANNA WALK AROUND WITH YOU
============================================================================
remember way back at the begining when I said I was missing some
subtleties? well I was talking about here... Its not inaccurate, just
missing some hammer ons/pull offs easy enough to figure out i think


 INTRO
|-------------------------------------------------------------------|
|-----------------------55-3h5-555-3h5-553555--77-5h7-777-5h7-775777|
|-77-5h7-777-5h7-775777---------------------------------------------|
|-------------------------------------------------------------------|

 VERSE
|-------------------------------------------------------|
|-7777775h7---------7777775h7---------7777775h7---------|
|----------5555553h5---------5555553h5---------5555553h5|
|-------------------------------------------------------|

 CHORUS
|-------------------------------------------------------|
|-------------------------------------------------------|
|-------------------------------------------------------|
|-33333333-55555555-33333333-55555555-33333333-55555555-|

 BRIDGE
|-------------------------------------------------------|
|---------77775h77-------77775h77-------77775h77--------|
|-77775h77-------77775h77-------77775h77--------77775h77|
|-------------------------------------------------------|


ORDER:
INTRO
VERSE
CHORUS
INTRO
VERSE
CHORUS
INTRO
VERSE
CHORUS
BRIDGE
VERSE
CHORUS

============================================================================
Track 14 of 14:
TODAY YOUR LOVE, TOMMOROW THE WORLD
============================================================================

 VERSE
|----------------------------------------------------------------------|
|---------55555555-22222222-22222222---------55555555-22222222-22222222|
|-33333333---------------------------33333333--------------------------|
|----------------------------------------------------------------------|

|----------------------------------------------------------------------|
|---------55555555-22222222-22222222---------55555555-22222222-22222222|
|-33333333---------------------------33333333--------------------------|
|----------------------------------------------------------------------|

 CHORUS
|------------------------------------------------------------------------|
|------------------------------------------------------------------------|
|-55555555-77777777-55555555-77777777-55555555-77777777-55555555-77777777|
|------------------------------------------------------------------------|

 OUTRO
|-----------------------------------------------------------------------|
|-----------------------------------------------------------------------|
|-55555555-77777777-55555555-77777777-55555555-77777777-55555555-7-7-7-7|
|-----------------------------------------------------------------------|

|--------------------------------------------------------------------|
|-77777777---------77777777---------77777777---------77777777--------|
|---------555-7777---------555-7777---------555-7777---------555-7777|
|--------------------------------------------------------------------|

|-------------------------------|
|-77777777---------77777777-----|
|---------555-7777---------555-7|
|-------------------------------|

ORDER:
VERSE
CHORUS
VERSE
CHORUS
VERSE
OUTRO
comments
print report bad tab
1 comment total.
0 reply
stephen.logan wrote on December 17 2014, 09:33 am

Excellent work many thanks

I want to post or [tab]
guest
You may want to rate the tab now too:
select rating
Please do not post tabs as comments. Select "correction" instead!