Oops, an error
Loading. Please wait.

Rock And Roll High School Tab

version 1
version 1

Whole song

Interactive

4,362 views 3 this week
3 commentsread comments
1 2 3 4 5
please rate
add to favorites
launch autoscroll
font size
0
reset
how to read this tab
guitar tuner
Tab Pro tools
  • play this tab
  • loop segment
  • change instrument
  • show fretboard
  • metronome
×
Best way to learn
"Rock And Roll High School"
Autoscroll
slow
fast
+/-
esc
set tempo
stop
Contributor
Rock N Roll High School
by The Ramones

tabbed by guitar_gczr

This is how Johnny plays it live.

Im 99% sure this is correct except for the chorus (# of strums)


intro
|-------------------------------------------------|
|-------------------------------------------------|
|-------------------------------------------------|
|-12-12-12-12-12-12-12-12-12-12-12-12-12-12-12-12-|
|-10-10-10-10-10-10-10-10-10-10-10-10-10-10-10-10-|
|-------------------------------------------------|

verse
|-------------------------------------------------| x2
|-------------------------------------------------|
|-------------------------------------------------|
|-10-10-10-10-10-10-10-10-10-10-10-10-10-10-10-10-|
|-10-10-10-10-10-10-10-10-10-10-10-10-10-10-10-10-|
|-8--8--8--8--8--8--8--8--8--8--8--8--8--8--8--8--|


|-------------------------------------------------|
|-------------------------------------------------|
|-------------------------------------------------|
|-10-10-10-10-10-10-10-10-10-10-10-10-10-10-10-10-|
|-8--8--8--8--8--8--8--8--8--8--8--8--8--8--8--8--|
|-------------------------------------------------|

|-------------------------------------------------|
|-------------------------------------------------|
|-------------------------------------------------|
|-10-10-10-10-10-10-10-10-10-10-10-10-10-10-10-10-|
|-10-10-10-10-10-10-10-10-10-10-10-10-10-10-10-10-|
|-8--8--8--8--8--8--8--8--8--8--8--8--8--8--8--8--|

pre chorus

|-----------------------------------------| x2
|-----------------------------------------|
|-----------------------------------------|
|-7-7-7-7-7-7-7-7-10-10-10-10-10-10-10-10-|
|-7-7-7-7-7-7-7-7-8--8--8--8--8--8--8--8--|
|-5-5-5-5-5-5-5-5-------------------------|

Chorus
                             12
*the 2 spaces in between the 10s are the individual chords tht Johnny strums along with 
snare beats
|------------------------------------------------------------------------|
|------------------------------------------------------------------------|
|------------------------------------------------------------------------|
|-10--10-10--7--7-7--10--10-10--12--12--12--12--12-12-12-12-12-12-12-12--|
|-10--10-10--7--7-7--8---8--8---10--10--10--10--10-10-10-10-10-10-10-10--|
|-8---8--8---5--5-5------------------------------------------------------|


verse

|-------------------------------------------------| x2
|-------------------------------------------------|
|-------------------------------------------------|
|-10-10-10-10-10-10-10-10-10-10-10-10-10-10-10-10-|
|-10-10-10-10-10-10-10-10-10-10-10-10-10-10-10-10-|
|-8--8--8--8--8--8--8--8--8--8--8--8--8--8--8--8--|


|-------------------------------------------------|
|-------------------------------------------------|
|-------------------------------------------------|
|-10-10-10-10-10-10-10-10-10-10-10-10-10-10-10-10-|
|-8--8--8--8--8--8--8--8--8--8--8--8--8--8--8--8--|
|-------------------------------------------------|

|-------------------------------------------------|
|-------------------------------------------------|
|-------------------------------------------------|
|-10-10-10-10-10-10-10-10-10-10-10-10-10-10-10-10-|
|-10-10-10-10-10-10-10-10-10-10-10-10-10-10-10-10-|
|-8--8--8--8--8--8--8--8--8--8--8--8--8--8--8--8--|


pre chorus

|-----------------------------------------| x2
|-----------------------------------------|
|-----------------------------------------|
|-7-7-7-7-7-7-7-7-10-10-10-10-10-10-10-10-|
|-7-7-7-7-7-7-7-7-8--8--8--8--8--8--8--8--|
|-5-5-5-5-5-5-5-5-------------------------|


Chorus

|-------------------------------------------------| x2
|-------------------------------------------------|
|-------------------------------------------------|
|-10--10-10--7--7-7--10--10-10--12-12-12-12-12----|
|-10--10-10--7--7-7--8---8--8---10-10-10-10-10----|
|-8---8--8---5--5-5-------------------------------|


Bridge?

|-------------------------------------------------|
|-------------------------------------------------|
|-------------------------------------------------|
|-10-10-10-10-10-10-10-10-10-10-10-10-10-10-10-10-|
|-10-10-10-10-10-10-10-10-10-10-10-10-10-10-10-10-|
|-8--8--8--8--8--8--8--8--8--8--8--8--8--8--8--8--|

|-----------------------------------------------------------------| x2
|-----------------------------------------------------------------|
|-----------------------------------------------------------------|
|-5-5-5-5-5-5-5-5-5-5-5-5-5-5-5-5-5-5-5-5-5-5-5-5-5-5-5-5-5-5-5-5-|
|-5-5-5-5-5-5-5-5-5-5-5-5-5-5-5-5-3-3-3-3-3-3-3-3-3-3-3-3-3-3-3-3-|
|-3-3-3-3-3-3-3-3-3-3-3-3-3-3-3-3---------------------------------|

|-----------------------------------------------------------------|
|-----------------------------------------------------------------|
|-----------------------------------------------------------------|
|-3-3-3-3-3-3-3-3-3-3-3-3-3-3-3-3-5-5-5-5-5-5-5-5-7-7-7-7-7-7-7-7-|
|-3-3-3-3-3-3-3-3-3-3-3-3-3-3-3-3-3-3-3-3-3-3-3-3-7-7-7-7-7-7-7-7-|
|-1-1-1-1-1-1-1-1-1-1-1-1-1-1-1-1-----------------5-5-5-5-5-5-5-5-|

|-------------------------------------------------| x2
|-------------------------------------------------|
|-------------------------------------------------|
|-10-10-10-10-7-7-7-7-10-10-10-10--12-12-12-12-12-|
|-10-10-10-10-7-7-7-7-8--8--8--8---10-10-10-10-10-|
|-8--8--8--8--5-5-5-5-----------------------------|


That pitch change

|------------------------------------------|
|------------------------------------------|
|------------------------------------------|
|-12--12-12--9--9-9--12--12-12--14--14-14--|
|-12--12-12--9--9-9--10--10-10--12--12-12--|
|-10--10-10--7--7-7------------------------|


Verse

|-------------------------------------------------| x2
|-------------------------------------------------|
|-------------------------------------------------|
|-12-12-12-12-12-12-12-12-12-12-12-12-12-12-12-12-|
|-12-12-12-12-12-12-12-12-12-12-12-12-12-12-12-12-|
|-10-10-10-10-10-10-10-10-10-10-10-10-10-10-10-10-|

|-------------------------------------------------|
|-------------------------------------------------|
|-------------------------------------------------|
|-12-12-12-12-12-12-12-12-12-12-12-12-12-12-12-12-|
|-10-10-10-10-10-10-10-10-10-10-10-10-10-10-10-10-|
|-------------------------------------------------|

|-------------------------------------------------|
|-------------------------------------------------|
|-------------------------------------------------|
|-12-12-12-12-12-12-12-12-12-12-12-12-12-12-12-12-|
|-12-12-12-12-12-12-12-12-12-12-12-12-12-12-12-12-|
|-10-10-10-10-10-10-10-10-10-10-10-10-10-10-10-10-|

Pre Chorus

|-----------------------------------------| x2
|-----------------------------------------|
|-----------------------------------------|
|-9-9-9-9-9-9-9-9-12-12-12-12-12-12-12-12-|
|-9-9-9-9-9-9-9-9-10-10-10-10-10-10-10-10-|
|-7-7-7-7-7-7-7-7-------------------------|

Chorus

|------------------------------------------| x2
|------------------------------------------|
|------------------------------------------|
|-12--12-12--9--9-9--12--12-12--14--14-14--|
|-12--12-12--9--9-9--10--10-10--12--12-12--|
|-10--10-10--7--7-7------------------------|

Bridge?

|-------------------------------------------------|
|-------------------------------------------------|
|-------------------------------------------------|
|-12-12-12-12-12-12-12-12-12-12-12-12-12-12-12-12-|
|-12-12-12-12-12-12-12-12-12-12-12-12-12-12-12-12-|
|-10-10-10-10-10-10-10-10-10-10-10-10-10-10-10-10-|

|-----------------------------------------------------------------| x2
|-----------------------------------------------------------------|
|-----------------------------------------------------------------|
|-7-7-7-7-7-7-7-7-7-7-7-7-7-7-7-7-7-7-7-7-7-7-7-7-7-7-7-7-7-7-7-7-|
|-7-7-7-7-7-7-7-7-7-7-7-7-7-7-7-7-5-5-5-5-5-5-5-5-5-5-5-5-5-5-5-5-|
|-5-5-5-5-5-5-5-5-5-5-5-5-5-5-5-5---------------------------------|


|-----------------------------------------------------------------|
|-----------------------------------------------------------------|
|-----------------------------------------------------------------|
|-5-5-5-5-5-5-5-5-5-5-5-5-5-5-5-5-7-7-7-7-7-7-7-7-9-9-9-9-9-9-9-9-|
|-5-5-5-5-5-5-5-5-5-5-5-5-5-5-5-5-5-5-5-5-5-5-5-5-9-9-9-9-9-9-9-9-|
|-3-3-3-3-3-3-3-3-3-3-3-3-3-3-3-3-----------------7-7-7-7-7-7-7-7-|

Chorus

|------------------------------------------| x4
|------------------------------------------|
|------------------------------------------|
|-12--12-12--9--9-9--12--12-12--14--14-14--|
|-12--12-12--9--9-9--10--10-10--12--12-12--|
|-10--10-10--7--7-7------------------------|


End On

|----|
|----|
|----|
|-12~|
|-12~|
|-10~|

Thats the whole song. Live.

I tabbed it from watching and listening to their live performance on the Old Grey Whistle.


Thanks for checking it out!
comments
We did not receive enough feedback on this tab! Please rate:
print report bad tab
1 2 3 4 5
3 comments total.
0 reply
guitar_gczr wrote on February 15 2009, 10:26 am

i must have forgotten on the pitch change the chorus before is only played normally once.

0 reply
guitar_gczr wrote on February 17 2009, 07:13 pm

woops..
it is played twice.

+1 reply
gnrslave wrote on June 20 2010, 02:01 pm

SICK TAB MAN

I want to post or [tab]
guest
You may want to rate the tab now too:
select rating
Please do not post tabs as comments. Select "correction" instead!