Oops, an error
Loading. Please wait.

Rock And Roll High School Tab

version 3
version 3

Whole song

Interactive

3,121 views 1 this week
no commentswrite comment
1 2 3 4 5
please rate
add to favorites
launch autoscroll
font size
0
reset
how to read this tab
guitar tuner
Tab Pro tools
  • play this tab
  • loop segment
  • change instrument
  • show fretboard
  • metronome
×
Best way to learn
"Rock And Roll High School"
Autoscroll
slow
fast
+/-
esc
set tempo
stop
Contributor
Difficulty
novice
You may play this with real power chords I dont like
these ones.
Listen to the song to hear the timing and rythm!

Drum Intro

e---------------------------------------------------------------------------|
B---------------------------------------------------------------------------|
G---------------------------------------------------------------------------|
D----------------------5-5-5-5-5-5-5-5-5-5-5-5-5-5-5-5----------------------|
A--5-5-5-5--5-5-5-5----3-3-3-3-3-3-3-3-3-3-3-3-3-3-3-3----------------------|
E--3-3-3-3--3-3-3-3---------------------------------------------------------|
                       Well I don't care about history

e---------------------------------------------------------------------------|
B---------------------------------------------------------------------------|
G---------------------------------------------------------------------------|
D-5-5-5-5-5-5-5-5-5-5-5-5-5-5-5-5-5-5---------------------------------------|
A-3-3-3-3-3-3-3-3-3-3-3-3-3-3-3-3-3-3---3-3-3-3-3-3-3-3-3-3-3-3-3-3-3-3-3-3-|
E---------------------------------------1-1-1-1-1-1-1-1-1-1-1-1-1-1-1-1-1-1-|
  Rock Rock rock 'n roll high school    Cuz that's not where I wanna be


e---------------------------------------------------------------------------|
B---------------------------------------------------------------------------|
G---------------------------------------------------------------------------|
D-5-5-5-5-5-5-5-5-5-5-5-5-5-5-5-5-5-5----2-2-2-2-2-2-2-2--------------------|
A-3-3-3-3-3-3-3-3-3-3-3-3-3-3-3-3-3-3----0-0-0-0-0-0-0-0-3-3-3-3-3-3-3-3----|
E--------------------------------------------------------1-1-1-1-1-1-1-1----|
  Rock Rock rock 'n roll high school     I just  wanna   have some kicks


e---------------------------------------------------------------------------|
B---------------------------------------------------------------------------|
G---------------------------------------------------------------------------|
D-2-2-2-2-2-2-2-2-----------------------5---5-------------------------------|
A-0-0-0-0-0-0-0-0-3-3-3-3-3-3-3-3-3-----3---3-----7----7-----3-3-3-3-3-3----|
E-----------------1-1-1-1-1-1-1-1-1---------------5----5-----1-1-1-1-1-1----|
  I just wanna    get some chicks      rock rock  rock rock  rock 'n roll

e---------------------------------------------------------------------------|
B---------------------------------------------------------------------------|
G---------------------------------------------------------------------------|
D---------------------------------------------------------------------------|
A-5-5-5-5-5-5-5-5-5-5-5-5-5-5-5-5-5-5-5-5-----------------------------------|
E-3-3-3-3-3-3-3-3-3-3-3-3-3-3-3-3-3-3-3-3-----------------------------------|
  high school

e---------------------------------------------------------------------------|
B---------------------------------------------------------------------------|
G---------------------------------------------------------------------------|
D-5-5-5-5-5-5-5-5-5-5-5-5-5-5-5-5-5-5-5-5-5-5-5-5-5-5-5-5-------------------|
A-3-3-3-3-3-3-3-3-3-3-3-3-3-3-3-3-3-3-3-3-3-3-3-3-3-3-3-3-------------------|
E---------------------------------------------------------------------------|
  Well the girls out there knock me out you know

e---------------------------------------------------------------------------|
B---------------------------------------------------------------------------|
G---------------------------------------------------------------------------|
D-5-5-5-5-5-5-5-5-5-5-5-5-5-5-5-5-5-5---------------------------------------|
A-3-3-3-3-3-3-3-3-3-3-3-3-3-3-3-3-3-3---3-3-3-3-3-3-3-3-3-3-3-3-3-3-3-3-3-3-|
E---------------------------------------1-1-1-1-1-1-1-1-1-1-1-1-1-1-1-1-1-1-|
  Rock Rock rock 'n roll high school    Cruisin around in my GTO

e---------------------------------------------------------------------------|
B---------------------------------------------------------------------------|
G---------------------------------------------------------------------------|
D-5-5-5-5-5-5-5-5-5-5-5-5-5-5-5-5-5-5--2-2-2-2-2-2-2-2-2-2-2-2-2------------|
A-3-3-3-3-3-3-3-3-3-3-3-3-3-3-3-3-3-3--0-0-0-0-0-0-0-0-0-0-0-0-0--3-3-3-3-3-|
E-----------------------------------------------------------------1-1-1-1-1-|
  Rock Rock rock 'n roll high school   I hate the teachers and the principal

e---------------------------------------------------------------------------|
B---------------------------------------------------------------------------|
G---------------------------------------------------------------------------|
D-2-2-2-2-2-2-2-2-2-2-2-2---------------------------------------------------|
A-0-0-0-0-0-0-0-0-0-0-0-0--3-3-3-3-3-3-3------------------------------------|
E--------------------------1-1-1-1-1-1-1------------------------------------|
  Don't wanna be taught to be no fool

e---------------------------------------------------------------------------|
B---------------------------------------------------------------------------|
G---------------------------------------------------------------------------|
D-5----5--------------------------------------------------------------------|
A-3----3-----7----7-----3--3--3--3---5-5-5-5-5-5-----(2X)-------------------|
E------------5----5-----1--1--1--1---3-3-3-3-3-3----------------------------|
  rock rock  rock rock  rock 'n roll high school

e------------------------|
B------------------------|
G------------------------|
D-5-5-5-5-5--5-5-5-5-5---|
A-3-3-3-3-3--3-3-3-3-3---|
E------------------------|


e---------------------------------------------------------------------------|
B---------------------------------------------------------------------------|
G---------------------------------------------------------------------------|
D-----------------------------------5-5-5-5-5-5-5-5-5-5-5-5-5-5-5-5-5-5-5---|
A-5-5-5-5-5-5-5-5-5-5-5-5-5-5-5-5-5-3-3-3-3-3-3-3-3-3-3-3-3-3-3-3-3-3-3-3---|
E-3-3-3-3-3-3-3-3-3-3-3-3-3-3-3-3-3-----------------------------------------|
  Fun Fun rock 'n roll high school  Fun Fun rock 'n roll high school

e---------------------------------------------------------------------------|
B---------------------------------------------------------------------------|
G---------------------------------------------------------------------------|
D-----------------------------------5-5-5-5-5-5-5-5-5-5-5-------------------|
A-5-5-5-5-5-5-5-5-5-5-5-5-5-5-5-5-5-3-3-3-3-3-3-3-3-3-3-3-3-3-3-3-3-3-3-3-3-|
E-3-3-3-3-3-3-3-3-3-3-3-3-3-3-3-3-3-----------------------1-1-1-1-1-1-1-1-1-|
  Fun Fun rock 'n roll high school  Fun Fun ooohh baby   Fun Fun ooohh baby


e-------------------------[----------------------(2X)----------------------]
B-------------------------[------------------------------------------------]
G-------------------------[------------------------------------------------]
D-5-5-5-5-5---------------[-5---5------------------------------------------]
A-3-3-3-3-3-7-7-7-7-7-7---[-3---3------7----7-----3--3--3--3---5-5-5-5-5-5-]
E-----------5-5-5-5-5-5---[------------5----5-----1--1--1--1---3-3-3-3-3-3-]
  Fun Fuuuuun  Fun Fun      rock rock  rock rock  rock 'n roll high school

KEY change from C to D

e---------------------------------------------------------------------------|
B---------------------------------------------------------------------------|
D---------------------------------------------------------------------------|
G---------------------------------------------------------------------------|
D-7----7--------------------------------------------------------------------|
A-5----5-----9----9------5-5-5-5-5-5--7-7-7-7-7-7-7-------------------------|
E------------7----7------3-3-3-3-3-3--5-5-5-5-5-5-5-------------------------|
  rock rock  rock rock   rock 'n roll high school

Drum intro


e---------------------------------------------------------------------------|
B---------------------------------------------------------------------------|
G---------------------------------------------------------------------------|
D-7-7-7-7-7-7-7-7-7-7-7-7-7-7-7-7-7-7-7-7-7-7-7-7-7-7-7-7-7-7-7-7-----------|
A-5-5-5-5-5-5-5-5-5-5-5-5-5-5-5-5-5-5-5-5-5-5-5-5-5-5-5-5-5-5-5-5-----------|
E---------------------------------------------------------------------------|
 Well I don't care about history   Rock Rock rock 'n roll high school

e---------------------------------------------------------------------------|
B---------------------------------------------------------------------------|
G---------------------------------------------------------------------------|
D-------------------------------------7-7-7-7-7-7-7-7-7-7-7-7-7-7-7-7-7-----|
A-5-5-5-5-5-5-5-5-5-5-5-5-5-5-5-5-5---5-5-5-5-5-5-5-5-5-5-5-5-5-5-5-5-5-----|
E-3-3-3-3-3-3-3-3-3-3-3-3-3-3-3-3-3-----------------------------------------|
  Cuz that's not where I wanna be     Rock Rock rock 'n roll high school


e---------------------------------------------------------------------------|
B---------------------------------------------------------------------------|
G---------------------------------------------------------------------------|
D-4-4-4-4-4-4-------------------4-4-4-4-4-4---------------------------------|
A-2-2-2-2-2-2--5-5-5-5-5-5-5-5--2-2-2-2-2-2--5-5-5-5-5-5-5-5----------------|
E--------------3-3-3-3-3-3-3-3---------------3-3-3-3-3-3-3-3----------------|
  I just wanna have some kicks  I just wanna get some chicks


e---------------------------------------------------------------------------|
B---------------------------------------------------------------------------|
G---------------------------------------------------------------------------|
D-7----7------------------------------------------------7-7-7-7-7-7-7-7-7-7-|
A-5----5-----9----9-----5-5-5-5-5-5--7-7-7-7-7-7--(2X)--5-5-5-5-5-5-5-5-5-5-|
E------------7----7-----3-3-3-3-3-3--5-5-5-5-5-5----------------------------|
  rock rock  rock rock  rock 'n roll high school

e---------------------------------------------------------------------------|
B---------------------------------------------------------------------------|
G---------------------------------------------------------------------------|
D------------------------------------7-7-7-7-7-7-7-7-7-7-7-7-7-7-7-7-7------|
A-7-7-7-7-7-7-7-7-7-7-7-7-7-7-7-7-7--5-5-5-5-5-5-5-5-5-5-5-5-5-5-5-5-5------|
E-5-5-5-5-5-5-5-5-5-5-5-5-5-5-5-5-5-----------------------------------------|
  Fun Fun rock 'n roll high school   Fun Fun rock 'n roll high school

e---------------------------------------------------------------------------|
B---------------------------------------------------------------------------|
G---------------------------------------------------------------------------|
D---------------------------------------------------------------------------|
A-7-7-7-7-7-7-7-7-7-7-7-7-7-7-7-7-7-7---------------------------------------|
E-5-5-5-5-5-5-5-5-5-5-5-5-5-5-5-5-5-5---------------------------------------|
  Fun Fun rock 'n roll high school

e---------------------------------------------------------------------------|
B---------------------------------------------------------------------------|
G---------------------------------------------------------------------------|
D-7-7-7-7-7-7-7-7-7-7------------------------7-7-7-7-7----------------------|
A-5-5-5-5-5-5-5-5-5-5--5-5-5-5-5-5-5-5-5-5---5-5-5-5-5-9-9-9-9-9-9----------|
E----------------------3-3-3-3-3-3-3-3-3-3-------------7-7-7-7-7-7----------|
  Fun Fun ohhh baby    Fun Fun ohhh baby


e---------------------------------------------------------------------------|
B---------------------------------------------------------------------------|
G---------------------------------------------------------------------------|
D-7----7-----------------------------------------------------7--------------|
A-5----5------9----9-----5---5---5------7-7-7-7-7-7----(4X)--5--------------|
E-------------7----7-----3---3---3------5-5-5-5-5-5-------------------------|
  rock rock   rock rock  rock 'n roll   high school
comments
We did not receive enough feedback on this tab! Please rate:
print report bad tab
1 2 3 4 5
I want to post or [tab]
guest
You may want to rate the tab now too:
select rating
Please do not post tabs as comments. Select "correction" instead!