Oops, an error
Loading. Please wait.

Rock And Roll High School Tab

version 4
version 4

Whole song

Interactive

982 views 1 this week
no commentswrite comment
1 2 3 4 5
please rate
add to favorites
launch autoscroll
font size
0
reset
how to read this tab
guitar tuner
Autoscroll
slow
fast
+/-
esc
set tempo
stop
Help us to improve Ultimate-Guitar.com Take our survey!
×
Author
Difficulty
novice
K this is Rock n Roll High School by The Ramones.
I tabbed this cuz its fun to play and theres no tab for this song any way beside the 
bass tab. K so i tabbed the chords
 and everything but this song is so simple you can find the strum patterns yorself. i 
didnt even bother tabbing the patterns.
k well hav fun it by. :)
Intro
|-------------------------------------|
|-------------------------------------|
|-------------------------------------|
|--4\5--------------------------------|
|--4\5-X2-----------------------------|
|--2\3--------------------------------|
i dnt care about history......
|------------------------------------|
|------------------------------------|
|--5----------5----------------------|
|--5-----3----5----------------------|
|--3-----3----3----------------------|
|--------1---------------------------|
I just wanna get some kicks....
|---------------|---------------------|
|---------------|-OR---YOU-CAN-DO-THIS|PRETTY MUCH THE SAME THING
|---------------|--2------------------|
|--7------3-----|--2---3--------------|
|--7------3-X-2-|--0---3--------------|
|--5------1-----|------1--------------|

Chorus (rock rock rock rock......)

|----------------|--------------------| or you can do it like this
|----------------|--------------------| pretty much same thing the A is just
|--5-------------|---5-2--------------|on one string below
|--5--7--3--5----|---5-2-3-5----------|
|--3--7--3--5----|---3-0-3-5----------|
|-----5--1--3----|-------1-3----------|

Repeat X1

Fun, Fun rock n roll highscool......
|--------------------------------------|
|--------------------------------------|
|-5-----5------5------5----------------|
|-5--5--5---5--5--3---5--7-------------|
|-3--5--3---5--3--3---3--7-------------|
|----3------3-----1------5-------------|


chorus then you do this


|-------------------------------------|
|-------------------------------------|
|-7-----------------------------------|
|-7--9--5--7--------------------------|
|-5--9--5--7--------------------------|
|----7--3--5--------------------------|

Break

I dnt care about history.......
|-------------------------------------|
|-------------------------------------|
|-7---------------7-------------------|
|-7------5--------7-------------------|
|-5------5--------5-------------------|
|--------3----------------------------|

I just wanna get some kicks.....

|-------------------------------------|
|-------------------------------------|
|-------------------------------------|
|----9--------5-----------------------|
|----9--------5------X2---------------|
|----7--------3-----------------------|

Chorus


|-------------------------------------|
|-------------------------------------|its the same chorus but two frets
|-7-----------------------------------|down
|-7--9--5--7--------------------------|
|-5--9--5--7--------------------------|
|----7--3--5--------------------------|

Fun, Fun.....

|-------------------------------------|
|-------------------------------------|
|---7------7------7-----7-------------|
|---7---7--7---7--7--5--7---9---------|
|---5---7--5---7--5--5--5---9---------|
|-------5------5-----3------7---------|

Chorus

|-------------------------------------|
|-------------------------------------|
|-7-----------------------------------|X4
|-7--9--5--7--------------------------|
|-5--9--5--7--------------------------|
|----7--3--5--------------------------|

The End!!! hope UG excepts this and if they do I hope i taught you well by comment for 
mistakes or n e thing by
Suggest correction
Give kudos to tab author, rate the tab!
1 2 3 4 5
comments
print report bad tab
guest
You may want to rate the tab now too:
select rating
Wanna post a correction for this tab? Suggest correction