Oops, an error
Loading. Please wait.

Rockaway Beach Tab

version 1
version 1

Whole song

Interactive

37,522 views 69 this week
3 commentsread comments
1 2 3 4 5
excellent!
x 20
add to favorites
launch autoscroll
font size
0
reset
how to read this tab
guitar tuner
Autoscroll
slow
fast
+/-
esc
set tempo
stop
Help us to improve Ultimate-Guitar.com Take our survey!
×
Ramones
Rockaway Beach
Tabbed by Kris The Great

ALL DOWNSTROKES

[Intro] x2
     C      D
e|-----------------------------------------------|
B|-----------------------------------------------|
G|--5-/--7-7-7-7-7-7-7-7-7-7-7-7-----------------|
D|--5-/--7-7-7-7-7-7-7-7-7-7-7-7-----------------|
A|--3-/--5-5-5-5-5-5-5-5-5-5-5-5-----------------|
E|-----------------------------------------------|

[Verse]
      G  /  A     x4      C / D                  D / e
e|-----------------------------------------------------------------------------|
B|-----------------------------------------------------------------------------|
G|-----------------------5-/-7-7-7-7-7----------7-/-9-9-9-9-9-9----------------|
D|--5-/-7-7-7-7-7--------5-/-7-7-7-7-7-x2-------7-/-9-9-9-9-9-9--x2------------|
A|--5-/-7-7-7-7-7-x4-----3-/-5-5-5-5-5----------5-/-7-7-7-7-7-7----------------|
E|--3-/-5-5-5-5-5--------------------------------------------------------------|

[Chorus]
    A                                    D                     A                         e
e|-----------------------------------------------------------------------------------------------------------|
B|-----------------------------------------------------------------------------------------------------------|
G|-----------------------7-7-7-7-7-7-7-7-7-7-7-7-7-7---------------------------9-9-9-9-9-9-9-9-9-9-9-9-9-9---|
D|7-7-7-7-7-7-7-7-7-7-7--7-7-7-7-7-7-7-7-7-7-7-7-7-7--7-7-7-7-7-7-7-7-7-7-7-7--9-9-9-9-9-9-9-9-9-9-9-9-9-9-x2|
A|7-7-7-7-7-7-7-7-7-7-7--5-5-5-5-5-5-5-5-5-5-5-5-5-5--7-7-7-7-7-7-7-7-7-7-7-7--7-7-7-7-7-7-7-7-7-7-7-7-7-7---|
E|5-5-5-5-5-5-5-5-5-5-5-------------------------------5-5-5-5-5-5-5-5-5-5-5-5--------------------------------|

[Post-Chorus]
      g     D              f     C
e|-------------------------------------------------------------|
B|-------------------------------------------------------------|
G|--12--------------------10-10-10-10-10-10-10-----------------|
D|--12-12-12-12-12-12-12--10-10-10-10-10-10-10-----------------|
A|--10-12-12-12-12-12-12--8--10-10-10-10-10-10-----------------|
E|-----10-10-10-10-10-10------8--8--8--8--8--8-----------------|

[Fill]
    F#                               A       F#                A           D
e|--------------------------------------------------------------------------------|
B|--------------------------------------------------------------------------------|
G|---------------------------------------------------------------------7-7-7-7-7--|
D|-4-4-4-4-4-4-4-4-----7-7-7-7-7-7-7-7-7-7-4-4-4-4-4-4-4-4-4---7-7-7-7-7-7-7-7-7--|
A|-4-4-4-4-4-4-4-4-----7-7-7-7-7-7-7-7-7-7-4-4-4-4-4-4-4-4-4---7-7-7-7-5-5-5-5-5--|
E|-2-2-2-2-2-2-2-2-----5-5-5-5-5-5-5-5-5-5-2-2-2-2-2-2-2-2-2---5-5-5-5------------|

[Verse]

[Chorus]

[Post-Chorus]

(then suddenly stop the four snares come in)

[Chorus]
 

************************************

| x  Dead note
| /  Slide up

************************************
Suggest correction
comments
print report bad tab
3 comments total.
+2 reply
Bilzzard_of_Ozz 55 wrote on March 30 2004, 12:00 am

Rock on, man!

-2 reply
Mracton 10 wrote on March 20 2007, 04:20 pm

i know its three years old at least but. KILL YR IDOLS! SONIC DEATH!


haha sonic youth owns us all. so do the ramones!

-1 reply
Submachine9 10 wrote on June 30 2013, 09:52 am

I think the intro may be a C#5 to a D5 not a C5. Good work anyway dude. This tab rocks!!!

guest
You may want to rate the tab now too:
select rating
Wanna post a correction for this tab? Suggest correction