Oops, an error
Loading. Please wait.

Rockaway Beach Tab

version 3
version 3

Whole song

Interactive

1,051 views 1 this week
1 commentread comment
1 2 3 4 5
please rate
add to favorites
launch autoscroll
font size
0
reset
how to read this tab
guitar tuner
Tab Pro tools
  • play this tab
  • loop segment
  • change instrument
  • show fretboard
  • metronome
×
Best way to learn
"Rockaway Beach"
Autoscroll
slow
fast
+/-
esc
set tempo
stop
Contributor
#----------------------------------PLEASE NOTE---------------------------------#
#This file is the author's own work and represents their interpretation of the #
#song. You may only use this file for private study, scholarship, or research. #
#------------------------------------------------------------------------------##

                                 ROCKAWAY BEACH
                           As recorded by The Ramones
                     (From the 1977 Album ROCKET TO RUSSIA)

Words and Music by Hyman, Cummings, Colvin & Erdelyi
Transcribed by Slowhand (http://www.instantpowertabs.de.vu)

          C#                    D                    A                    E
      x 4 6 6 6 x          x 5 7 7 7 x          5 7 7 6 5 5          x 7 9 9 9 x

           G                   DX                  EXII                   F
   x 10 12 12 12 10     10 12 12 11 10 10     12 14 14 13 x x      13 15 15 14 x x

           C                   F#m
     8 10 10 9 x x         2 4 4 2 2 2

Gtr I (E A D G B E) - 'Johnny Ramone - Gtr. 1'

 Intro
  Driving punk rock Q=185
                C#D                                 C#D
 4/4
  Gtr I
  Q  Q  Q  Q    E E E E E E E E   E E E E E E E E   E E E E E E E E
|-x--x--x--x--|-----------------|-----------------|-----------------|
|-------------|-6s7-7-7-7-7-7-7-|-7-7-7-7-7-7-7-7-|-6s7-7-7-7-7-7-7-|
|-------------|-6s7-7-7-7-7-7-7-|-7-7-7-7-7-7-7-7-|-6s7-7-7-7-7-7-7-|
|-------------|-6s7-7-7-7-7-7-7-|-7-7-7-7-7-7-7-7-|-6s7-7-7-7-7-7-7-|
|-------------|-4s5-5-5-5-5-5-5-|-5-5-5-5-5-5-5-5-|-4s5-5-5-5-5-5-5-|
|-------------|-----------------|-----------------|-----------------|


                     1st, 2nd & 3rd Verses
                  $
                      A
  E E E E E E E E     E E E E E E E E   E E E E E E E E
|-----------------||--5-5-5-5-5-5-5-5-|-5-5-5-5-5-5-5-5-|
|-7-7-7-7-7-7-7-7-||o-5-5-5-5-5-5-5-5-|-5-5-5-5-5-5-5-5-|
|-7-7-7-7-7-7-7-7-||--6-6-6-6-6-6-6-6-|-6-6-6-6-6-6-6-6-|
|-7-7-7-7-7-7-7-7-||--7-7-7-7-7-7-7-7-|-7-7-7-7-7-7-7-7-|
|-5-5-5-5-5-5-5-5-||o-7-7-7-7-7-7-7-7-|-7-7-7-7-7-7-7-7-|
|-----------------||--5-5-5-5-5-5-5-5-|-5-5-5-5-5-5-5-5-|


                                      D
  E E E E E E E E   E E E E E E E E   E E E E E E E E   E E E E E E E E
|-5-5-5-5-5-5-5-5-|-5-5-5-5-5-5-5-5-|-----------------|------------------|
|-5-5-5-5-5-5-5-5-|-5-5-5-5-5-5-5-5-|-7-7-7-7-7-7-7-7-|-7-7-7-7-7-7-7-7--|
|-6-6-6-6-6-6-6-6-|-6-6-6-6-6-6-6-6-|-7-7-7-7-7-7-7-7-|-7-7-7-7-7-7-7-7--|
|-7-7-7-7-7-7-7-7-|-7-7-7-7-7-7-7-7-|-7-7-7-7-7-7-7-7-|-7-7-7-7-7-7-7-7--|
|-7-7-7-7-7-7-7-7-|-7-7-7-7-7-7-7-7-|-5-5-5-5-5-5-5-5-|-5-5-5-5-5-5-5-5--|
|-5-5-5-5-5-5-5-5-|-5-5-5-5-5-5-5-5-|-----------------|------------------|


  E                                   A
  E E E E E E E E   E E E E E E E E   E E E E E E E E   E E E E E E E E
|-----------------|-----------------|-5-5-5-5-5-5-5-5-|-5-5-5-5-5-5-5-5--|
|-9-9-9-9-9-9-9-9-|-9-9-9-9-9-9-9-9-|-5-5-5-5-5-5-5-5-|-5-5-5-5-5-5-5-5--|
|-9-9-9-9-9-9-9-9-|-9-9-9-9-9-9-9-9-|-6-6-6-6-6-6-6-6-|-6-6-6-6-6-6-6-6--|
|-9-9-9-9-9-9-9-9-|-9-9-9-9-9-9-9-9-|-7-7-7-7-7-7-7-7-|-7-7-7-7-7-7-7-7--|
|-7-7-7-7-7-7-7-7-|-7-7-7-7-7-7-7-7-|-7-7-7-7-7-7-7-7-|-7-7-7-7-7-7-7-7--|
|-----------------|-----------------|-5-5-5-5-5-5-5-5-|-5-5-5-5-5-5-5-5--|


                                      D
  E E E E E E E E   E E E E E E E E   E E E E E E E E   E E E E E E E E
|-5-5-5-5-5-5-5-5-|-5-5-5-5-5-5-5-5-|-----------------|------------------|
|-5-5-5-5-5-5-5-5-|-5-5-5-5-5-5-5-5-|-7-7-7-7-7-7-7-7-|-7-7-7-7-7-7-7-7--|
|-6-6-6-6-6-6-6-6-|-6-6-6-6-6-6-6-6-|-7-7-7-7-7-7-7-7-|-7-7-7-7-7-7-7-7--|
|-7-7-7-7-7-7-7-7-|-7-7-7-7-7-7-7-7-|-7-7-7-7-7-7-7-7-|-7-7-7-7-7-7-7-7--|
|-7-7-7-7-7-7-7-7-|-7-7-7-7-7-7-7-7-|-5-5-5-5-5-5-5-5-|-5-5-5-5-5-5-5-5--|
|-5-5-5-5-5-5-5-5-|-5-5-5-5-5-5-5-5-|-----------------|------------------|


                                      Chorus
  E                                    A
  E E E E E E E E   E E E E E E E E    Q  E E E E E E   E E E E E E E E
|-----------------|-----------------||-5--5-5-5-5-5-5-|-5-5-5-5-5-5-5-5--|
|-9-9-9-9-9-9-9-9-|-9-9-9-9-9-9-9-9-||-5--5-5-5-5-5-5-|-5-5-5-5-5-5-5-5--|
|-9-9-9-9-9-9-9-9-|-9-9-9-9-9-9-9-9-||-6--6-6-6-6-6-6-|-6-6-6-6-6-6-6-6--|
|-9-9-9-9-9-9-9-9-|-9-9-9-9-9-9-9-9-||-7--7-7-7-7-7-7-|-7-7-7-7-7-7-7-7--|
|-7-7-7-7-7-7-7-7-|-7-7-7-7-7-7-7-7-||-7--7-7-7-7-7-7-|-7-7-7-7-7-7-7-7--|
|-----------------|-----------------||-5--5-5-5-5-5-5-|-5-5-5-5-5-5-5-5--|


  D                                  A
  Q  E E E E E E   E E E E E E E E   Q  E E E E E E
|----------------|-----------------|-5--5-5-5-5-5-5-|
|-7--7-7-7-7-7-7-|-7-7-7-7-7-7-7-7-|-5--5-5-5-5-5-5-|
|-7--7-7-7-7-7-7-|-7-7-7-7-7-7-7-7-|-6--6-6-6-6-6-6-|
|-7--7-7-7-7-7-7-|-7-7-7-7-7-7-7-7-|-7--7-7-7-7-7-7-|
|-5--5-5-5-5-5-5-|-5-5-5-5-5-5-5-5-|-7--7-7-7-7-7-7-|
|----------------|-----------------|-5--5-5-5-5-5-5-|


                                     1.
                    E
  E E E E E E E E   E E E E E E E E   E E E E E E E E
|-5-5-5-5-5-5-5-5-|-----------------|------------------||
|-5-5-5-5-5-5-5-5-|-9-9-9-9-9-9-9-9-|-9-9-9-9-9-9-9-9-o||
|-6-6-6-6-6-6-6-6-|-9-9-9-9-9-9-9-9-|-9-9-9-9-9-9-9-9--||
|-7-7-7-7-7-7-7-7-|-9-9-9-9-9-9-9-9-|-9-9-9-9-9-9-9-9--||
|-7-7-7-7-7-7-7-7-|-7-7-7-7-7-7-7-7-|-7-7-7-7-7-7-7-7-o||
|-5-5-5-5-5-5-5-5-|-----------------|------------------||


  2.,D.S.
  E                 G     DX                  DX EXIF   C
 4/4                                         6/4
  E E E E E E E E    E  E  E  E  E  E  E  E    E  E  Q   Q   E  E  E  E  E  E
|-----------------|-10-10-10-10-10-10-10-10-|-10------------------------------|
|-9-9-9-9-9-9-9-9-|-12-12-10-10-10-10-10-10-|-10------------------------------|
|-9-9-9-9-9-9-9-9-|-12-12-11-11-11-11-11-11-|-11-12-14---9---9--9--9--9--9--9-|
|-9-9-9-9-9-9-9-9-|-12-12-12-12-12-12-12-12-|-12-14-15--10--10-10-10-10-10-10-|
|-7-7-7-7-7-7-7-7-|-10-10-12-12-12-12-12-12-|-12-14-15--10--10-10-10-10-10-10-|
|-----------------|-------10-10-10-10-10-10-|-10-12-13---8---8--8--8--8--8--8-|


  G     DX
 4/4
   E  E  E  E  E  E  E  E
|-10-10-10-10-10-10-10-10-|
|-12-12-10-10-10-10-10-10-|
|-12-12-11-11-11-11-11-11-|
|-12-12-12-12-12-12-12-12-|
|-10-10-12-12-12-12-12-12-|
|-------10-10-10-10-10-10-|


                                     Bridge
                           To Coda
  DX EXIF   C                         F#m
 6/4                                 4/4
   E  E  Q   Q   E  E  E  E  E  E     E E E E E E E E
|-10-------------------------------||-2-2-2-2-2-2-2-2-|
|-10-------------------------------||-2-2-2-2-2-2-2-2-|
|-11-12-14---9---9--9--9--9--9--9--||-2-2-2-2-2-2-2-2-|
|-12-14-15--10--10-10-10-10-10-10--||-4-4-4-4-4-4-4-4-|
|-12-14-15--10--10-10-10-10-10-10--||-4-4-4-4-4-4-4-4-|
|-10-12-13---8---8--8--8--8--8--8--||-2-2-2-2-2-2-2-2-|


  F#m                                 A
 4/4
  E E E E E E E E   E E E E E E E E   E E E E E E E E   E E E E E E E E
|-2-2-2-2-2-2-2-2-|-2-2-2-2-2-2-2-2-|-5-5-5-5-5-5-5-5-|-5-5-5-5-5-5-5-5-|
|-2-2-2-2-2-2-2-2-|-2-2-2-2-2-2-2-2-|-5-5-5-5-5-5-5-5-|-5-5-5-5-5-5-5-5-|
|-2-2-2-2-2-2-2-2-|-2-2-2-2-2-2-2-2-|-6-6-6-6-6-6-6-6-|-6-6-6-6-6-6-6-6-|
|-4-4-4-4-4-4-4-4-|-4-4-4-4-4-4-4-4-|-7-7-7-7-7-7-7-7-|-7-7-7-7-7-7-7-7-|
|-4-4-4-4-4-4-4-4-|-4-4-4-4-4-4-4-4-|-7-7-7-7-7-7-7-7-|-7-7-7-7-7-7-7-7-|
|-2-2-2-2-2-2-2-2-|-2-2-2-2-2-2-2-2-|-5-5-5-5-5-5-5-5-|-5-5-5-5-5-5-5-5-|


                                                            D.S. al Coda
  F#m                                 D                 E
  E E E E E E E E   E E E E E E E E   E E E E E E E E   E E E E E E E E
|-2-2-2-2-2-2-2-2-|-2-2-2-2-2-2-2-2-|-----------------|------------------||
|-2-2-2-2-2-2-2-2-|-2-2-2-2-2-2-2-2-|-7-7-7-7-7-7-7-7-|-9-9-9-9-9-9-9-9--||
|-2-2-2-2-2-2-2-2-|-2-2-2-2-2-2-2-2-|-7-7-7-7-7-7-7-7-|-9-9-9-9-9-9-9-9--||
|-4-4-4-4-4-4-4-4-|-4-4-4-4-4-4-4-4-|-7-7-7-7-7-7-7-7-|-9-9-9-9-9-9-9-9--||
|-4-4-4-4-4-4-4-4-|-4-4-4-4-4-4-4-4-|-5-5-5-5-5-5-5-5-|-7-7-7-7-7-7-7-7--||
|-2-2-2-2-2-2-2-2-|-2-2-2-2-2-2-2-2-|-----------------|------------------||


                           Out-Chorus
  &
  D  A         N.C.         A
  Q  Q  H      W            Q  E E E E E E   E E E E E E E E
|----5-------|----------||--5--5-5-5-5-5-5-|-5-5-5-5-5-5-5-5--|
|-7--5-------|----------||o-5--5-5-5-5-5-5-|-5-5-5-5-5-5-5-5--|
|-7--6-------|----------||--6--6-6-6-6-6-6-|-6-6-6-6-6-6-6-6--|
|-7--7-------|----------||--7--7-7-7-7-7-7-|-7-7-7-7-7-7-7-7--|
|-5--7-------|----------||o-7--7-7-7-7-7-7-|-7-7-7-7-7-7-7-7--|
|----5-------|----------||--5--5-5-5-5-5-5-|-5-5-5-5-5-5-5-5--|


  D                                  A
  Q  E E E E E E   E E E E E E E E   Q  E E E E E E   E E E E E E E E
|----------------|-----------------|-5--5-5-5-5-5-5-|-5-5-5-5-5-5-5-5--|
|-7--7-7-7-7-7-7-|-7-7-7-7-7-7-7-7-|-5--5-5-5-5-5-5-|-5-5-5-5-5-5-5-5--|
|-7--7-7-7-7-7-7-|-7-7-7-7-7-7-7-7-|-6--6-6-6-6-6-6-|-6-6-6-6-6-6-6-6--|
|-7--7-7-7-7-7-7-|-7-7-7-7-7-7-7-7-|-7--7-7-7-7-7-7-|-7-7-7-7-7-7-7-7--|
|-5--5-5-5-5-5-5-|-5-5-5-5-5-5-5-5-|-7--7-7-7-7-7-7-|-7-7-7-7-7-7-7-7--|
|----------------|-----------------|-5--5-5-5-5-5-5-|-5-5-5-5-5-5-5-5--|


  E                                     D     A
  E E E E E E E E   E E E E E E E E     Q  Q  H
|-----------------|------------------||----5-------*|
|-9-9-9-9-9-9-9-9-|-9-9-9-9-9-9-9-9-o||-7--5-------*|
|-9-9-9-9-9-9-9-9-|-9-9-9-9-9-9-9-9--||-7--6-------*|
|-9-9-9-9-9-9-9-9-|-9-9-9-9-9-9-9-9--||-7--7-------*|
|-7-7-7-7-7-7-7-7-|-7-7-7-7-7-7-7-7-o||-5--7-------*|
|-----------------|------------------||----5-------*|


Duration Legend
---------------
W - whole; H - half; Q - quarter; E - 8th; S - 16th; T - 32nd; X - 64th; a - acciaccatura
+ - note tied to previous; . - note dotted; .. - note double dotted
Uncapitalized letters represent notes that are staccato (1/2 duration)
Irregular groupings are notated above the duration line
Duration letters will always appear directly above the note/fret number it represents the
duration for.  Duration letters with no fret number below them represent rests.  Multi-
bar rests are notated in the form Wxn, where n is the number of bars to rest for.  Low
melody durations appear below the staff

Tablature Legend
----------------
 h   - hammer-on
 p   - pull-off
 b   - bend
 pb  - pre-bend
 r   - bend release (if no number after the r, then release immediately)
 /\  - slide into or out of (from/to "nowhere")
 s   - legato slide
 S   - shift slide
  - natural harmonic
[n]  - artificial harmonic
n(n) - tapped harmonic
 ~   - vibrato
 tr  - trill
 T   - tap
 TP  - trem. picking
 PM  - palm muting
\n/  - tremolo bar dip; n = amount to dip
 \n  - tremolo bar down
 n/  - tremolo bar up
/n\  - tremolo bar inverted dip
 =   - hold bend; also acts as connecting device for hammers/pulls
 <>  - volume swell (louder/softer)
 x   - on rhythm slash represents muted slash
 o   - on rhythm slash represents single note slash

Misc Legend
-----------
 |  - bar
||  - double bar
||o - repeat start
o|| - repeat end
*|  - double bar (ending)
 :  - bar (freetime)
 $  - Segno
 &  - Coda
Tempo markers -  = BPM(8/16=s8/s16), where s8 = swing 8ths, s16 = swing 16ths


***************************************************************************************
* Generated using Power Tab Editor by Brad Larsen - http://powertab.guitarnetwork.org *
***************************************************************************************
comments
We did not receive enough feedback on this tab! Please rate:
print report bad tab
1 2 3 4 5
1 comment total.
0 reply
headbanger_89 wrote on May 28 2009, 01:48 pm

Wrong: They should be powerchords, not major-chords

I want to post or [tab]
guest
You may want to rate the tab now too:
select rating
Please do not post tabs as comments. Select "correction" instead!