Oops, an error
Loading. Please wait.
We have an official Sheena Is A Punk Rocker tab made by UG professional guitarists. Check out the tab »
×
by Ramones
16,971 views 51 this week
1 commentread comment
1 2 3 4 5
x 4
add to favorites
launch autoscroll
font size
0
reset
how to read this tab
guitar tuner
×
Best way to learn
"Sheena Is A Punk Rocker"
Autoscroll
slow
fast
+/-
esc
set tempo
stop
Author
Difficulty
novice
This Is Sheena Is A Punk Rocker
Band: The Ramones
Song: Sheena Is A Punk Rocker
Tabbed By: your555im666
Tuning: Standerd

 [Verse]
   C            G            C             Am
e|------------|------------|-------------|-------------|
B|------------|------------|-------------|-5---5-----5-|
G|-9---9------|-4---4------|-9---9-----9-|-5---5-----5-|
D|-10--10-----|-5---5------|-10--10----10|-7---7-----7-|
A|-10--10-----|-5---5------|-10--10----10|-7---7-----7-|
E|-8---8------|-3---3------|-8---8-----8-|-5---5-----5-|
   X4             X2            X2            X1

   F             Am            F             C            G
e|-1---1-----1-|-------------|-1---1-----1-|------------|------------|
B|-1---1-----1-|-5---5-----5-|-1---1-----1-|------------|------------|
G|-2---2-----2-|-5---5-----5-|-2---2-----2-|-9---9------|-4---4------|
D|-3---3-----3-|-7---7-----7-|-3---3-----3-|-10--10-----|-5---5------|
A|-3---3-----3-|-7---7-----7-|-3---3-----3-|-10--10-----|-5---5------|
E|-1---1-----1-|-5---5-----5-|-1---1-----1-|-8---8------|-3---3------|
     X1            X1            X1           X2            X4

 [Chorus]
   C                      F             G
e|-8------8------8------|-1------1------3------3------|
B|-8------8------8------|-1------1------3------3------|
G|-9------9------9------|-2------2------4------4------|   X8
D|-10-----10-----10-----|-3------3------5------5------|
A|-10-----10-----10-----|-3------3------5------5------|
E|-8------8------8------|-1------1------3------3------|

 [Bridge]
   F                 C                 G                 Bb
e|-3---3------3--3-|-----------------|-3---3------3--3-|-6---6------6--6-|
B|-3---3------3--3-|-5---5------5--5-|-3---3------3--3-|-6---6------6--6-|
G|-2---2------2--2-|-5---5------5--5-|-4---4------4--4-|-7---7------7--7-|
D|-3---3------3--3-|-5---5------5--5-|-5---5------5--5-|-8---8------8--8-|
A|-3---3------3--3-|-3---3------3--3-|-5---5------5--5-|-8---8------8--8-|
E|-1---1------1--1-|-----------------|-3---3------3--3-|-6---6------6--6-|
        X2                X2                X2                X2

-------------------------------------------

That's It It's Very Easy Just Barre Chords Any Questions Leave A Comment
Or E-mail Me At eoindowning@yahoo.com
Suggest correction
comments
print report bad tab
1 comment total.
0 reply
7thhell 10 Jan 07, 2012 01:20 PM

Good tab. Just remember the slide from B to C in the intro. Over and over.

guest
You may want to rate the tab now too:
select rating
Wanna post a correction for this tab? Suggest correction