Oops, an error
Loading. Please wait.

Sheena Is A Punk Rocker Bass Tab

version 3
version 3

Whole song

Interactive

15,228 views 21 this week
no commentswrite comment
1 2 3 4 5
excellent!
x 9
add to favorites
launch autoscroll
font size
0
reset
guitar tuner
Tab Pro tools
  • play this tab
  • loop segment
  • change instrument
  • show fretboard
  • metronome
×
Best way to learn
"Sheena Is A Punk Rocker"
Autoscroll
slow
fast
+/-
esc
set tempo
stop
Contributor
5.Sheena Is A Punk-Rocker

Intro
G----------|----------|----------|----------|
D----------|----------|----------|----------|
A-2/3-3--3-|-2/3-3--3-|-2/3-3--3-|-2/3-3--3-|
E----------|----------|----------|----------|

Verse
G-----------------------------------------------------------------|
D-----------------------------------------------------------------|
A-3-3-3-3-3-3-3-3-3-3-3-3-3-3-3-3-----------------3-3-3-3-3-3-3-3-|
E---------------------------------3-3-3-3-3-3-3-3-----------------|
                                
G-----------------------------------------------------------------|
D-----------------------------------------------------------------|
A-0-0-0-0-0-0-0-0-----------------0-0-0-0-0-0-0-0-----------------|
E-----------------1-1-1-1-1-1-1-1-----------------1-1-1-1-1-1-1-1-|

G-----------------------------------------------------------------|
D-----------------------------------------------------------------|
A-3-3-3-3-3-3-3-3-3-3-3-3-3-3-3-3---------------------------------|
E---------------------------------3-3-3-3-3-3-3-3-3-3-3-3-3-3-3-3-|

G-----------------|
D-----------------|
A-----------------|
E-3-3-3-3-3-3-3-3-|

Chorus                          x7
G---------------------------------|-------------------------------|
D-----------------3-3-3-3-5-5-5-5-|-------------------------------|
A-3-3-3-3-3-3-3-3-----------------|-3-3-3-3-3-3-3-3-3-3-3-3-3-3-3-|
E---------------------------------|-------------------------------|

Bridge ("...punk punk, punk rocker...")
G-----------------------------------------------------------------|
D-----------------------------------------------------------------|
A---------------------------------3-3-3-3-3-3-3-3-3-3-3-3-3-3-3-3-|
E-1-1-1-1-1-1-1-1-1-1-1-1-1-1-1-1---------------------------------|

G-----------------------------------------------------------------|
D-----------------------------------------------------------------|
A---------------------------------1-1-1-1-1-1-1-1-1-1-1-1-1-1-1-1-|
E-3-3-3-3-3-3-3-3-3-3-3-3-3-3-3-3---------------------------------|

Intro
G----------|----------|----------|----------|
D----------|----------|----------|----------|
A-2/3-3--3-|-2/3-3--3-|-2/3-3--3-|-2/3-3--3-|
E----------|----------|----------|----------|

Verse
G-----------------------------------------------------------------|
D-----------------------------------------------------------------|
A-3-3-3-3-3-3-3-3-3-3-3-3-3-3-3-3-----------------3-3-3-3-3-3-3-3-|
E---------------------------------3-3-3-3-3-3-3-3-----------------|
                                
G-----------------------------------------------------------------|
D-----------------------------------------------------------------|
A-0-0-0-0-0-0-0-0-----------------0-0-0-0-0-0-0-0-----------------|
E-----------------1-1-1-1-1-1-1-1-----------------1-1-1-1-1-1-1-1-|

G-----------------------------------------------------------------|
D-----------------------------------------------------------------|
A-3-3-3-3-3-3-3-3-3-3-3-3-3-3-3-3---------------------------------|
E---------------------------------3-3-3-3-3-3-3-3-3-3-3-3-3-3-3-3-|

G-----------------|
D-----------------|
A-----------------|
E-3-3-3-3-3-3-3-3-|

Chorus                          x7
G---------------------------------|-------------------------------|
D-----------------3-3-3-3-5-5-5-5-|-------------------------------|
A-3-3-3-3-3-3-3-3-----------------|-3-3-3-3-3-3-3-3-3-3-3-3-3-3-3-|
E---------------------------------|-------------------------------|

Bridge ("...punk punk, punk rocker...")
G-----------------------------------------------------------------|
D-----------------------------------------------------------------|
A---------------------------------3-3-3-3-3-3-3-3-3-3-3-3-3-3-3-3-|
E-1-1-1-1-1-1-1-1-1-1-1-1-1-1-1-1---------------------------------|

G-----------------------------------------------------------------|
D-----------------------------------------------------------------|
A---------------------------------1-1-1-1-1-1-1-1-1-1-1-1-1-1-1-1-|
E-3-3-3-3-3-3-3-3-3-3-3-3-3-3-3-3---------------------------------|

Intro
G----------|----------|----------|----------|
D----------|----------|----------|----------|
A-2/3-3--3-|-2/3-3--3-|-2/3-3--3-|-2/3-3--3-|
E----------|----------|----------|----------|

Outro          repeat and fade out
G---------------------------------|
D-----------------3-3-3-3-5-5-5-5-|
A-3-3-3-3-3-3-3-3-----------------|
E---------------------------------|

I hate the other version up here, so this is mine
comments
print report bad tab
I want to post or [tab]
guest
You may want to rate the tab now too:
select rating
Please do not post tabs as comments. Select "correction" instead!