Oops, an error
Loading. Please wait.

Somebody Like Me Bass Tab

549 views 1 this week
no commentswrite comment
1 2 3 4 5
please rate
add to favorites
launch autoscroll
font size
0
reset
guitar tuner
Autoscroll
slow
fast
+/-
esc
set tempo
stop
Help us to improve Ultimate-Guitar.com Take our survey!
×
Intro                           x4
G---------------------------------|
D---------------------------------|
A-----------------5*------7*------|
E-5-5-5-5-5-5-5-5-----------------|

Verse 1                         x4
G---------------------------------|
D---------------------------------|
A-----------------5-5-5-5-7-7-7-7-|
E-5-5-5-5-5-5-5-5-----------------|

Chorus                          x3
G---------------------------------|
D---------------------------------|
A-5-5-5-5-5-5-5-5-2-2-2-2-2-2-2-2-|
E---------------------------------|

"Get my kicks and live my life..."
G-----------------------------------------------------------------|
D-----------------------------------------------------------------|
A-----------------5-5-5-5-5-5-5-5-7-7-7-7-7-7-7-7-7-7-7-7-7-7-7-7-|
E-5-5-5-5-5-5-5-5-------------------------------------------------|

Verse 2                         x4
G---------------------------------|
D---------------------------------|
A-----------------5-5-5-5-7-7-7-7-|
E-5-5-5-5-5-5-5-5-----------------|

Chorus                          x3
G---------------------------------|
D---------------------------------|
A-5-5-5-5-5-5-5-5-2-2-2-2-2-2-2-2-|
E---------------------------------|

"Get my kicks and live my life..."
G-----------------------------------------------------------------|
D-----------------------------------------------------------------|
A-----------------5-5-5-5-5-5-5-5-7-7-7-7-7-7-7-7-7-7-7-7-7-7-7-7-|
E-5-5-5-5-5-5-5-5-------------------------------------------------|

Solo                            x4
G---------------------------------|
D---------------------------------|
A-----------------5-5-5-5-7-7-7-7-|
E-5-5-5-5-5-5-5-5-----------------|

Verse 3                         x3
G---------------------------------|
D---------------------------------|
A-5-5-5-5-5-5-5-5-2-2-2-2-2-2-2-2-|
E---------------------------------|

G-----------------------------------------------------------------|
D-----------------------------------------------------------------|
A-----------------5-5-5-5-5-5-5-5-7-7-7-7-7-7-7-7-7-7-7-7-7-7-7-7-|
E-5-5-5-5-5-5-5-5-------------------------------------------------|

Chorus                          x3
G---------------------------------|
D---------------------------------|
A-5-5-5-5-5-5-5-5-2-2-2-2-2-2-2-2-|
E---------------------------------|

"Get my kicks and live my life..."
G-----------------------------------------------------------------|
D-----------------------------------------------------------------|
A-----------------5-5-5-5-5-5-5-5-7-7-7-7-7-7-7-7-7-7-7-7-7-7-7-7-|
E-5-5-5-5-5-5-5-5-------------------------------------------------|

Chorus                          x3
G---------------------------------|
D---------------------------------|
A-5-5-5-5-5-5-5-5-2-2-2-2-2-2-2-2-|
E---------------------------------|

"Get my kicks and live my life..."
G-----------------------------------------------------------------|
D-----------------------------------------------------------------|
A-----------------5-5-5-5-5-5-5-5-7-7-7-7-7-7-7-7-7-7-7-7-7-7-7-7-|
E-5-5-5-5-5-5-5-5-------------------------------------------------|

thats it and in order

Suggest correction
Give kudos to tab author, rate the tab!
1 2 3 4 5
comments
print report bad tab
guest
You may want to rate the tab now too:
select rating
Please do not post tabs as comments. Select "correction" instead!