Oops, an error
Loading. Please wait.

Strength To Endure Bass Tab

version 2
version 2

Whole song

Interactive

22 views 1 this week
no commentswrite comment
1 2 3 4 5
3 more votes to show rating
add to favorites
launch autoscroll
font size
0
reset
guitar tuner
Autoscroll
slow
fast
+/-
esc
set tempo
stop
Help us to improve Ultimate-Guitar.com Take our survey!
×
Author
Difficulty
novice
------------------------------------------------------------------------------
                     Strength To Endure - The Ramones
------------------------------------------------------------------------------

Tabbed by: ChrisT

From the Album: The Chrysalis Years (2002)

Tuning: Standard

Intro                           Repeat x4
G|---------------------------------------|
D|o-------------------------------------o|
A|o--3-3-3-3----------------------------o|
E|-----------0-0-0-0-5-5-3-5---3-5-3-----|

Verse                           Repeat x8
G|---------------------------------------|
D|o-------------------------------------o|
A|o--3-3-3-3----------------------------o|
E|-----------0-0-0-0-5-5-3-5---3-5-3-----|

Chorus
G|----------------------------------------------------------------------|
D|----------------------------------------------------------------------|
A|---3-3-3-3-3-3-3-3-----------------3-3-3-3-3-3-3-3--------------------|
E|-------------------5-5-5-5-5-5-5-5-----------------3-3-3-3-3-3-3-3----|

G|----------------------------------------------------------------------|
D|----------------------------------------------------------------------|
A|---3-3-3-3-3-3-3-3----------------------------------------------------|
E|-------------------5-5-5-5-5-5-5-5-3-3-3-3-3-3-3-3-1-1-1-1-1-1-1-1----|

Verse                           Repeat x8
G|---------------------------------------|
D|o-------------------------------------o|
A|o--3-3-3-3----------------------------o|
E|-----------0-0-0-0-5-5-3-5---3-5-3-----|

Chorus
G|----------------------------------------------------------------------|
D|----------------------------------------------------------------------|
A|---3-3-3-3-3-3-3-3-----------------3-3-3-3-3-3-3-3--------------------|
E|-------------------5-5-5-5-5-5-5-5-----------------3-3-3-3-3-3-3-3----|

G|----------------------------------------------------------------------|
D|----------------------------------------------------------------------|
A|---3-3-3-3-3-3-3-3----------------------------------------------------|
E|-------------------5-5-5-5-5-5-5-5-3-3-3-3-3-3-3-3-1-1-1-1-1-1-1-1----|

Guitar Solo                     Repeat x4
G|---------------------------------------|
D|o-------------------------------------o|
A|o--3-3-3-3----------------------------o|
E|-----------0-0-0-0-5-5-3-5---3-5-3-----|

Chorus
G|----------------------------------------------------------------------|
D|----------------------------------------------------------------------|
A|---3-3-3-3-3-3-3-3-----------------3-3-3-3-3-3-3-3--------------------|
E|-------------------5-5-5-5-5-5-5-5-----------------3-3-3-3-3-3-3-3----|

G|----------------------------------------------------------------------|
D|----------------------------------------------------------------------|
A|---3-3-3-3-3-3-3-3----------------------------------------------------|
E|-------------------5-5-5-5-5-5-5-5-3-3-3-3-3-3-3-3-1-1-1-1-1-1-1-1----|

Verse                           Repeat x8
G|---------------------------------------|
D|o-------------------------------------o|
A|o--3-3-3-3----------------------------o|
E|-----------0-0-0-0-5-5-3-5---3-5-3-----|

Chorus
G|----------------------------------------------------------------------|
D|o---------------------------------------------------------------------|
A|o--3-3-3-3-3-3-3-3-----------------3-3-3-3-3-3-3-3--------------------|
E|-------------------5-5-5-5-5-5-5-5-----------------3-3-3-3-3-3-3-3----|

G|----------------------------------------------------------------------|
D|---------------------------------------------------------------------o|
A|---3-3-3-3-3-3-3-3---------------------------------------------------o|
E|-------------------5-5-5-5-5-5-5-5-3-3-3-3-3-3-3-3-1-1-1-1-1-1-1-1----|

                                Repeat x3
G|---------------------------------------|------------------------------|
D|o-------------------------------------o|------------------------------|
A|o--3-3-3-3----------------------------o|---3-3-3-3--------------------|
E|-----------0-0-0-0-5-5-3-5---3-5-3-----|-----------0-0-0-0-5-5-3-5----|

Suggest correction
Give kudos to tab author, rate the tab!
1 2 3 4 5
comments
print report bad tab
guest
You may want to rate the tab now too:
select rating
Wanna post a correction for this tab? Suggest correction