Oops, an error
Loading. Please wait.

Substitute Bass Tab

version 1
version 1

Whole song

Interactive

19 views 1 this week
no commentswrite comment
1 2 3 4 5
3 more votes to show rating
add to favorites
launch autoscroll
font size
0
reset
guitar tuner
Autoscroll
slow
fast
+/-
esc
set tempo
stop
Help us to improve Ultimate-Guitar.com Take our survey!
×
Author
Difficulty
novice
------------------------------------------------------------------------------
                         Substitute - The Ramones
------------------------------------------------------------------------------

Tabbed by: ChrisT

From the Album: The Chrysalis Years 

Tuning: Standard

Intro
G|----------------------------------------------------------------------|
D|----------------------------------------------------------------------|
A|---5-------------------------------5-------------------------0-2-4----|
E|----------------------------------------------------------------------|

G|----------------------------------------------------------------------|
D|----------------------------------------------------------------------|
A|---5-5-5-5-5-5-5-5-5-5-5-5-5-5-5-5-5-5-5-5-5-5-5-5-5-5-5-5-5-5-5-5----|
E|----------------------------------------------------------------------|

Verse
G|----------------------------------------------------------------------|
D|o--------------------------------------------------------------------o|
A|o--5-5-5-5-5-5-5-5-----------------5-5-5-5-5-5-5-5-5-5-5-5-5-5-5-5---o|
E|-------------------3-3-3-3-5-5-5-5------------------------------------|

G|----------------------------------------------------------------------|
D|o--------------------------------------------------------------------o|
A|o--------------5h7-------------5h7-------------5h7-------------5h7---o|
E|---0-0-3-3-5-5-----0-0-3-3-5-5-----0-0-3-3-5-5-----0-0-3-3-5-5--------|

G|--------------------------------------|
D|--------------------------------------|
A|--------------------------------------|
E|---5-5-5-5-5-5-5-5-5-5-5-5-5-5-5-5----|

Chorus
G|----------------------------------------------------------------------|---------|
D|o--------------------------------------------------------------------o|---------|
A|o--5-5-5-5-5-5-5-5-5-5-5-5-5-5-5-5-5-5-5-5-5-5-5-5-5-5-5-5-5-5-5-5---o|---5~----|
E|----------------------------------------------------------------------|---------|

Verse
G|----------------------------------------------------------------------|
D|o--------------------------------------------------------------------o|
A|o--5-5-5-5-5-5-5-5-----------------5-5-5-5-5-5-5-5-5-5-5-5-5-5-5-5---o|
E|-------------------3-3-3-3-5-5-5-5------------------------------------|

G|----------------------------------------------------------------------|
D|o--------------------------------------------------------------------o|
A|o--------------5h7-------------5h7-------------5h7-------------5h7---o|
E|---0-0-3-3-5-5-----0-0-3-3-5-5-----0-0-3-3-5-5-----0-0-3-3-5-5--------|

G|----------------------------------------------------------------------|
D|----------------------------------------------------------------------|
A|----------------------------------------------------------------------|
E|---5-5-5-5-5-5-5-5-5-5-5-5-5-5-5-5-5-5-5-5-5-5-5-5-5-5-5-5-5-5-5-5----|

Chorus
G|----------------------------------------------------------------------|---------|
D|o--------------------------------------------------------------------o|---------|
A|o--5-5-5-5-5-5-5-5-5-5-5-5-5-5-5-5-5-5-5-5-5-5-5-5-5-5-5-5-5-5-5-5---o|---5~----|
E|----------------------------------------------------------------------|---------|

Bridge
G|----------------------------------------------------------------------|
D|o------4-4-5-5-7-7---------------------4-4-5-5-7-7-----4-4-5-5-7-7---o|
A|o--5-5-----------------2-2-3-3-5-5-5-5-------------5-5---------------o|
E|-------------------3-3------------------------------------------------|

G|----------------------------------------------------------------------|
D|o--------------------------------------------------------------------o|
A|o--------------5h7-------------5h7-------------5h7-------------5h7---o|
E|---0-0-3-3-5-5-----0-0-3-3-5-5-----0-0-3-3-5-5-----0-0-3-3-5-5--------|

G|--------------------------------------|
D|--------------------------------------|
A|--------------------------------------|
E|---5-5-5-5-5-5-5-5-5-5-5-5-5-5-5-5----|

G|----------------------------------------------------------------------|
D|----------------------------------------------------------------------|
A|---5-------------------------------5-------------------------0-2-4----|
E|----------------------------------------------------------------------|

Verse
G|----------------------------------------------------------------------|
D|o--------------------------------------------------------------------o|
A|o--5-5-5-5-5-5-5-5-----------------5-5-5-5-5-5-5-5-5-5-5-5-5-5-5-5---o|
E|-------------------3-3-3-3-5-5-5-5------------------------------------|

G|----------------------------------------------------------------------|
D|o--------------------------------------------------------------------o|
A|o--------------5h7-------------5h7-------------5h7-------------5h7---o|
E|---0-0-3-3-5-5-----0-0-3-3-5-5-----0-0-3-3-5-5-----0-0-3-3-5-5--------|

G|--------------------------------------|
D|--------------------------------------|
A|--------------------------------------|
E|---5-5-5-5-5-5-5-5-5-5-5-5-5-5-5-5----|

Chorus
G|----------------------------------------------------------------------|
D|o--------------------------------------------------------------------o|
A|o--5-5-5-5-5-5-5-5-5-5-5-5-5-5-5-5-5-5-5-5-5-5-5-5-5-5-5-5-5-5-5-5---o|
E|----------------------------------------------------------------------|

G|----------------------------------------------------------------------|---------|
D|o--------------------------------------------------------------------o|---------|
A|o--5-5-5-5-5-5-5-5-5-5-5-5-5-5-5-5-5-5-5-5-5-5-5-5-5-5-5-5-5-5-5-5---o|---5~----|
E|----------------------------------------------------------------------|---------|

====================
~ - Hold note
h - Hammer on
====================
Suggest correction
Give kudos to tab author, rate the tab!
1 2 3 4 5
comments
print report bad tab
guest
You may want to rate the tab now too:
select rating
Wanna post a correction for this tab? Suggest correction