Oops, an error
Loading. Please wait.

Suzy Is A Headbanger Tab

version 1
version 1

Whole song

Interactive

3,891 views 18 this week
1 commentread comment
1 2 3 4 5
excellent!
x 6
add to favorites
launch autoscroll
font size
0
reset
how to read this tab
guitar tuner
Tab Pro tools
  • play this tab
  • loop segment
  • change instrument
  • show fretboard
  • metronome
×
Best way to learn
"Suzy Is A Headbanger"
Autoscroll
slow
fast
+/-
esc
set tempo
stop
Contributor
This is a great song and once again there was no tab for it. So i went and learned how
to play this song and it is quite simple.

Here is the Intro

E|------------------------------------------|
B|------------------------------------------|
G|-----------5-5-5-5-5--7-7--5-5------------|
D|-5-5-5-5-5-5-5-5-5-5--7-7--5-5--5-5-5-5-5-|
A|-5-5-5-5-5-3-3-3-3-3--5-5--3-3--5-5-5-5-5-|
e|-3-3-3-3-3----------------------3-3-3-3-3-|

|------------------------------------------|
|------------------------------------------|
|-----------5-5-5-5-5--7-7--5-5------------|
|-5-5-5-5-5-5-5-5-5-5--7-7--5-5--5-5-5-5-5-|
|-5-5-5-5-5-3-3-3-3-3--5-5--3-3--5-5-5-5-5-|
|-3-3-3-3-3----------------------3-3-3-3-3-|

|---------------------|
|---------------------|
|-5/55-5/55-5/55-5555-|
|-5/55-5/55-5/55-5555-|
|-2/33-2/33-2/33-3333-|
|---------------------|

|---------------------|
|---------------------|
|-5/55-5/55-5/55-5555-|
|-5/55-5/55-5/55-5555-|
|-2/33-2/33-2/33-3333-|
|---------------------|

|---------------------|
|---------------------|
|-5/55-5/55-5/55-5555-|
|-5/55-5/55-5/55-5555-|
|-2/33-2/33-2/33-3333-|
|---------------------|

|------------------------------------------|
|------------------------------------------|
|-----------5-5-5-5-5--7-7--5-5------------|
|-5-5-5-5-5-5-5-5-5-5--7-7--5-5--5-5-5-5-5-|
|-5-5-5-5-5-3-3-3-3-3--5-5--3-3--5-5-5-5-5-|
|-3-3-3-3-3----------------------3-3-3-3-3-|
ooooooooohh eeeeeeee   do it one more time for me

|------------------------------------------|
|------------------------------------------|
|-----------5-5-5-5-5--7-7--5-5------------|
|-5-5-5-5-5-5-5-5-5-5--7-7--5-5--5-5-5-5-5-|
|-5-5-5-5-5-3-3-3-3-3--5-5--3-3--5-5-5-5-5-|
|-3-3-3-3-3----------------------3-3-3-3-3-|
ooooooooohh eeeeeeee   do it one more time for me

|---------------------|
|---------------------|
|-7-7--5-5------------|
|-7-7--5-5--5-5-5-5-5-|
|-5-5--3-3--5-5-5-5-5-|
|-----------3-3-3-3-3-|
can't stop stop that girl

|---------------------|
|---------------------|
|-7-7--5-5------------|
|-7-7--5-5--5-5-5-5-5-|
|-5-5--3-3--5-5-5-5-5-|
|-----------3-3-3-3-3-|
there she goes again

|---------------------|
|---------------------|
|-7-7--5-5------------|
|-7-7--5-5--5-5-5-5-5-|
|-5-5--3-3--5-5-5-5-5-|
|-----------3-3-3-3-3-|
I really really love to watch her

|---------------------|
|---------------------|
|-7-7--5-5------------|
|-7-7--5-5--5-5-5-5-5-|
|-5-5--3-3--5-5-5-5-5-|
|-----------3-3-3-3-3-|
watch her headbanging

|-------------------------------------|
|-------------------------------------|
|-5-5-5-5--5-5-5-5--------------------|
|-5-5-5-5--5-5-5-5--5-5-5-5--5-5-5-5--|
|-3-3-3-3--3-3-3-3--5-5-5-5--5-5-5-5--|
|-------------------3-3-3-3--3-3-3-3--|
Suzy is a headbanger her mother is a geek

|---------------------------------------|
|---------------------------------------|
|-5-5-5-5--5-5-5-5--7-7--5-5------------|
|-5-5-5-5--5-5-5-5--7-7--5-5--5-5-5-5-5-|
|-3-3-3-3--3-3-3-3--5-5--3-3--5-5-5-5-5-|
|-----------------------------3-3-3-3-3-|
do it one more time for me ooooooohh eeee

|---------------------|
|---------------------|
|-7-7--5-5------------|
|-7-7--5-5--5-5-5-5-5-|
|-5-5--3-3--5-5-5-5-5-|
|-----------3-3-3-3-3-|
oooooooohh eeee

|---------------------|
|---------------------|
|-5/55-5/55-5/55-5555-|
|-5/55-5/55-5/55-5555-|
|-2/33-2/33-2/33-3333-|
|---------------------|

|---------------------|
|---------------------|
|-5/55-5/55-5/55-5555-|
|-5/55-5/55-5/55-5555-|
|-2/33-2/33-2/33-3333-|
|---------------------|

|---------------------|
|---------------------|
|-5/55-5/55-5/55-5555-|
|-5/55-5/55-5/55-5555-|
|-2/33-2/33-2/33-3333-|
|---------------------|

|------------------------------------------|
|------------------------------------------|
|-----------5-5-5-5-5--7-7--5-5------------|
|-5-5-5-5-5-5-5-5-5-5--7-7--5-5--5-5-5-5-5-|
|-5-5-5-5-5-3-3-3-3-3--5-5--3-3--5-5-5-5-5-|
|-3-3-3-3-3----------------------3-3-3-3-3-|
ooooooooohh eeeeeeee   do it one more time for me

|------------------------------------------|
|------------------------------------------|
|-----------5-5-5-5-5--7-7--5-5------------|
|-5-5-5-5-5-5-5-5-5-5--7-7--5-5--5-5-5-5-5-|
|-5-5-5-5-5-3-3-3-3-3--5-5--3-3--5-5-5-5-5-|
|-3-3-3-3-3----------------------3-3-3-3-3-|
ooooooooohh eeeeeeee   do it one more time for me

|---------------------|
|---------------------|
|-7-7--5-5------------|
|-7-7--5-5--5-5-5-5-5-|
|-5-5--3-3--5-5-5-5-5-|
|-----------3-3-3-3-3-|
can't stop stop that girl

|---------------------|
|---------------------|
|-7-7--5-5------------|
|-7-7--5-5--5-5-5-5-5-|
|-5-5--3-3--5-5-5-5-5-|
|-----------3-3-3-3-3-|
there she goes again

|---------------------|
|---------------------|
|-7-7--5-5------------|
|-7-7--5-5--5-5-5-5-5-|
|-5-5--3-3--5-5-5-5-5-|
|-----------3-3-3-3-3-|
I really really love to watch her

|---------------------|
|---------------------|
|-7-7--5-5------------|
|-7-7--5-5--5-5-5-5-5-|
|-5-5--3-3--5-5-5-5-5-|
|-----------3-3-3-3-3-|
watch her headbanging

|-------------------------------------|
|-------------------------------------|
|-5-5-5-5--5-5-5-5--------------------|
|-5-5-5-5--5-5-5-5--5-5-5-5--5-5-5-5--|
|-3-3-3-3--3-3-3-3--5-5-5-5--5-5-5-5--|
|-------------------3-3-3-3--3-3-3-3--|
Suzy is a headbanger her mother is a geek

|---------------------------------------|
|---------------------------------------|
|-5-5-5-5--5-5-5-5--7-7--5-5------------|
|-5-5-5-5--5-5-5-5--7-7--5-5--5-5-5-5-5-|
|-3-3-3-3--3-3-3-3--5-5--3-3--5-5-5-5-5-|
|-----------------------------3-3-3-3-3-|
do it one more time for me ooooooohh eeee

|---------------------|
|---------------------|
|-7-7--5-5------------|
|-7-7--5-5--5-5-5-5-5-|
|-5-5--3-3--5-5-5-5-5-|
|-----------3-3-3-3-3-|
oooooooohh eeee

|---------------------|
|---------------------|
|-5/55-5/55-5/55-5555-|
|-5/55-5/55-5/55-5555-|
|-2/33-2/33-2/33-3333-|
|---------------------|

|---------------------|
|---------------------|
|-5/55-5/55-5/55-5555-|
|-5/55-5/55-5/55-5555-|
|-2/33-2/33-2/33-3333-|
|---------------------|

|-----------------------|
|-----------------------|
|-5/55-5/55-5/55-5555-5-|
|-5/55-5/55-5/55-5555-5-|
|-2/33-2/33-2/33-3333-3-|
|-----------------------|

then it goes headbanger, headbanger,etc.

|-----------------------------------|
|-----------------------------------|
|----------5-5-5-5--7-7-7-7-7-7-7-7-|
|-5-5-5-5--5-5-5-5--7-7-7-7-7-7-7-7-|
|-5-5-5-5--3-3-3-3--5-5-5-5-5-5-5-5-|
|-3-3-3-3---------------------------|
  head  -  bang  -   er

|-------------------|
|-------------------|
|--7-7-7-7-7-7-7-7--|
|--7-7-7-7-7-7-7-7--|
|--5-5-5-5-5-5-5-5--|
|-------------------|

|---------|
|---------|
|----7----|
|----7----|
|----5----|
|---------|
end on this note

that's it any comments number666blader@aol.com
PLEASE RATE
comments
print report bad tab
1 comment total.
0 reply
Will E. Ramone wrote on February 8 2006, 06:16 pm

|---------------------|
|---------------------|
|-5/55-5/55-5/55-5555-|
|-5/55-5/55-5/55-5555-|
|-2/33-2/33-2/33-3333-|
|---------------------|
^ that part is wrong. it should just be

A-4/55--4/55--4/55--555-------
E-----------------------------

I want to post or [tab]
guest
You may want to rate the tab now too:
select rating
Please do not post tabs as comments. Select "correction" instead!