Oops, an error
Loading. Please wait.

Suzy Is A Headbanger Bass Tab

version 2
version 2

Whole song

Interactive

664 views 1 this week
no commentswrite comment
1 2 3 4 5
3 more votes to show rating
add to favorites
launch autoscroll
font size
0
reset
guitar tuner
Autoscroll
slow
fast
+/-
esc
set tempo
stop
Help us to improve Ultimate-Guitar.com Take our survey!
×
Intro                                                   x2
G-----------------------------------------------------------------|
D-----------------------------------------------------------------|
A-----------------3-3-3-3-3-3-3-3-5-5-5-5-3-3-3-3-----------------|
E-3-3-3-3-3-3-3-3---------------------------------3-3-3-3-3-3-3-3-|

Interlude                  x3
G----------------------------|
D----------------------------|
A-4/5-5-5-4/5-5-5-4/5-5-5--5-|
E----------------------------|

Verse                                                           x2
G-----------------------------------------------------------------|
D-----------------------------------------------------------------|
A-----------------3-3-3-3-3-3-3-3-5-5-5-5-3-3-3-3-----------------|
E-3-3-3-3-3-3-3-3---------------------------------3-3-3-3-3-3-3-3-|
                                                                x2
G-----------------------------------------------------------------|
D-----------------------------------------------------------------|
A-5-5-5-5-3-3-3-3-----------------5-5-5-5-3-3-3-3-----------------|
E-----------------3-3-3-3-3-3-3-3-----------------3-3-3-3-3-3-3-3-|

Chours
G-----------------------------------------------------------------|
D-----------------------------------------------------------------|
A-3-3-3-3-3-3-3-3-3-3-3-3-3-3-3-3---------------------------------|
E---------------------------------3-3-3-3-3-3-3-3-3-3-3-3-3-3-3-3-|
                                                                  x2
G---------------------------------|---------------------------------|
D---------------------------------|---------------------------------|
A-3-3-3-3-3-3-3-3-3-3-3-3-3-3-3-3-|-5-5-5-5-3-3-3-3-----------------|
E---------------------------------|-----------------3-3-3-3-3-3-3-3-|

Interlude                  x3
G----------------------------|
D----------------------------|
A-4/5-5-5-4/5-5-5-4/5-5-5--5-|
E----------------------------|

Verse                                                           x2
G-----------------------------------------------------------------|
D-----------------------------------------------------------------|
A-----------------3-3-3-3-3-3-3-3-5-5-5-5-3-3-3-3-----------------|
E-3-3-3-3-3-3-3-3---------------------------------3-3-3-3-3-3-3-3-|
                                                                x2
G-----------------------------------------------------------------|
D-----------------------------------------------------------------|
A-5-5-5-5-3-3-3-3-----------------5-5-5-5-3-3-3-3-----------------|
E-----------------3-3-3-3-3-3-3-3-----------------3-3-3-3-3-3-3-3-|

Chours
G-----------------------------------------------------------------|
D-----------------------------------------------------------------|
A-3-3-3-3-3-3-3-3-3-3-3-3-3-3-3-3---------------------------------|
E---------------------------------3-3-3-3-3-3-3-3-3-3-3-3-3-3-3-3-|
                                                                  x2
G---------------------------------|---------------------------------|
D---------------------------------|---------------------------------|
A-3-3-3-3-3-3-3-3-3-3-3-3-3-3-3-3-|-5-5-5-5-3-3-3-3-----------------|
E---------------------------------|-----------------3-3-3-3-3-3-3-3-|

Interlude                  x3
G----------------------------|
D----------------------------|
A-4/5-5-5-4/5-5-5-4/5-5-5--5-|
E----------------------------|

Outro                           x3                                x3
G---------------------------------|---------------------------------|---|
D---------------------------------|---------------------------------|---|
A---------3-3-3-3-5-5-5-5-5-5-5-5-|-5-5-5-5-5-5-5-5-5-5-5-5-5-5-5-5-|---|
E-3-3-3-3-------------------------|---------------------------------|-3-|

Other version is pure shit on here
Suggest correction
Give kudos to tab author, rate the tab!
1 2 3 4 5
comments
print report bad tab
guest
You may want to rate the tab now too:
select rating
Wanna post a correction for this tab? Suggest correction